» » »

Rolling Stones, You Got Me Rockin Tabs (ver.1)

Artists:  A B C D E F G H I J K L M N O P Q R S T U V W X Y Z # 

You Got Me Rockin Tabs (ver.1)

Rolling Stones Tabs
 Rating:
4/5 (4 votes)
You Got Me Rockin lessons Tabs too difficult? Try these video lessons and learn fast
                Tuning: Five String Open G (G,D,G,B,D)

Listen to recording, youll figure how and where to play each part....
~~~~~~~~~~~~~~~~~~~~~~~~~~~~~~~~~~~~~~~~~~~~~~~~~~~~~~~~~~

(Intro)

-----------------------------------------
-3p3----3----3--3p3-----3-----3h3--------
-2p0----0----0--2p0-----0-----0h2--------
-0p0-0----------0p0--0-----0----0--------
-----------------------------------------

(Verses) (Improvise)

----------------------------------------------------------
-7---7---7----7---7----7----7-----7-7---5-5-5-5--0--0-----
-7---7---7----7---7----7----7-----7-7---5-5-5-5--0--0-----
-7---7---7----7---7----7----7-----7-7---5-5-5-5--0--0-----
-7---7---7----7---7----7----7-----7-7---5-5-5-5--0--0-----
I was a butcher, cutting up meat......

(Chorus)

-----------------------------------------
-7---7---7----5--5--5--5---0--0----------
-7---7---7----5--5--5--5---0--0----------
-7---7---7----5--5--5--5---0--0----------
-7---7---7----5--5--5--5---0--0----------
Hey, hey, you got me rockin now...


(Part Before Solo)

--------------------------------
-7-----5------2-----------------
-7-----5------2-----------------
-7-----5------2-----------------
--------------2------------------

(Solo)((I did my best!)

--------------------------------7---7--------------------------------------
-7~~-5---7brp5----5b--------7b--------------7br--5----5b-------------------
----------------7-----------------------------------7----------------------
(Something like that anyway!)
            
Submit corrections

comments powered by Disqus
↑ Back to top | Rolling Stones Tabs for You Got Me Rockin. Lyrics for acoustic guitar and electric guitar. Tablatures and chords are parodies/interpretations of the original songs. You may use it for private study, scholarship, research or language learning purposes only