» » »

Rolling Stones, You Can't Always Get What You Want Tabs (ver.1)

Artists:  A B C D E F G H I J K L M N O P Q R S T U V W X Y Z # 

You Can't Always Get What You Want Tabs (ver.1)

Rolling Stones Tabs
 Rating:
4/5 (4 votes)
You Can't Always Get What You Want lessons Tabs too difficult? Try these video lessons and learn fast
                PROPS GO TO: ledzeppelin842002

Rolling Stones - You Can't Always Get What you Want
Rhythm, Acoustic Guitar (steel) 




|-3--5-3--0-3-3-0-3--0-3-0-3--5-5-5--5-5---------3-0--3-3-0--3-|
|-5--6-5--8-5-5-8-5--8-5-8-5--6-6-6--6-6------6--5-8--5-5-8--5-|
|-5--5-5--7-5-5-7-5--7-5-7-5--7-7-7--7-7------5--5-7--5-5-7--5-|
|-5--7-5--5-5-5-5-5--5-5-5-5--7-7-7--7-7--5-7----5-5--5-5-5--5-|
|-3----3----3-3---3----3---3--5-5-5--------------3----3-3----3-|
|--------------------------------------------------------------|

|-0-3-3-0-3--0-5-0-3--5-5-5-5-5-5------3-3--0-3-3-0-3--0-3-0-3--5-5-5--5-5-------3-|
|-8-5-5-8-5--8-5-8-5--6-6-6-6-6-6------5-5--8-5-5-8-5--8-5-8-5--6-6-6--6-6-----6-5-|
|-7-5-3-7-5--7-5-7-5--5-5-5-5-5-5------5-5--7-5-5-7-5--7-5-7-5--7-7-7--7-7-----5-5-|
|-5-5-3-5-5--5-5-5-5--7-7-7-7-7-7-5-7-------5-5-5-5-5--5-5-5-5--7-7-7--7-7-5-7---5-|
|---3-3---3----3---3--------------------------3-3---3----3---3--5-5-5------------3-|
|----------------------------------------------------------------------------------|

|-0-3-3-0-3--0-3-0-3--5-5-5-5-5-5-----3-3--0--3-3-0-3--0-3-0-3--5-5-5-5-5-5-|
|-8-5-5-8-5--8-5-8-5--6-6-6-6-6-6-----5-5--8--5-5-8-5--8-5-8-5--6-6-6-6-6-6-|
|-7-5-5-7-5--7-5-7-5--5-5-5-5-5-5-----5-5--7--5-5-7-5--7-5-7-5--5-5-5-5-5-5-|
|-5-5-5-5-5--5-5-5-5--7-7-7-7-7-7-5-7------5--5-5-5-5--5-5-5-5--7-7-7-7-7-7-|
|---3-3---3----3---3--------------------------3-3---3----3---3--------------|
|---------------------------------------------------------------------------|

|-5-3-3-3--0-3-3-0-3--0-3-0-3--5-5-5-5-5-------0-0--0--0--0-0---0-0--0-0--|
|-6-5-5-5--8-5-5-8-5--8-5-8-5--6-6-6-6-6-----6-8-8--8--8--8-8---8-8--8-8--|
|-5-5-5-5--7-5-5-7-5--7-5-7-5--5-5-5-5-5-----5-5-5--0--0--7-0---7-0--7-0--|
|-7-5-5-5--5-5-5-5-5--5-5-5-5--7-7-7-7-7-5-7---7-7--10-10-5-10--5-10-5-10-|
|---3-3-3----3-3---3----3---3---------------------------------------------|
|-------------------------------------------------------------------------|

|-5-5-5-5-5-5--5-3-3-3--0-3-3-0-3-0-3--0-3-0-3--5-5-5-5-5-5--5-5-5-5--0-3-3-0-3--0-3-0-3-|
|-6-6-6-6-6-6--6-5-5-5--8-5-5-8-5-8-5--8-5-8-5--6-6-6-6-6-6--6-6-6-6--8-5-5-8-5--8-5-8-5-|
|-5-5-5-5-5-5--5-5-5-5--7-5-5-7-5-7-5--7-5-7-5--5-5-5-5-5-5--5-5-5-5--7-5-5-7-5--7-5-7-5-|
|-7-7-7-7-7-7--7-5-5-5--5-5-5-5-5-5-5--5-5-5-5--7-7-7-7-7-7--7-7-7-7--5-5-5-5-5--5-5-5-5-|
|----------------3-3-3----3-3---3---3----3---3--------------------------3-3---3----3---3-|
|----------------------------------------------------------------------------------------|

|-5-5-5-5-5-5--5-5-5-5--0-3-3-0-3--0-3-0-3--5-5-5-5-5-5--5-5-5-5-|
|-6-6-6-6-6-6--6-6-6-6--8-5-5-8-5--8-5-8-5--6-6-6-6-6-6--6-6-6-6-|
|-5-5-5-5-5-5--5-5-5-5--7-5-5-7-5--7-5-7-5--5-5-5-5-5-5--5-5-5-5-|
|-7-7-7-7-7-7--7-7-7-7--5-5-5-5-5--5-5-5-5--7-7-7-7-7-7--7-7-7-7-|
|-------------------------3-3---3----3---3-----------------------|
|----------------------------------------------------------------|

|-0-3-3-0-3--0-3-0-3--5-5-5-5-5-5--5-5-5-5---5-----------1------1-1-|
|-8-5-5-8-5--8-5-8-5--6-6-6-6-6-6--6-6-6-6---7---------1-1------1-1-|
|-7-5-5-7-5--7-5-7-5--5-5-5-5-5-5--5-5-5-5---7------2--0-2--0-2-----|
|-5-5-5-5-5--5-5-5-5--7-7-7-7-7-7--7-7-7-7---7----5-----------------|
|---3-3---3----3---3-------------------------5--5-------------------|
|-------------------------------------------------------------------|

|-0-3-3-0-3--0-3-0-3--5-5-5-5-5-5--5-5-5-5--0-3-3-0-3--0-3-0-3--5-5-5-5-5-5--5-5-5-5-|
|-8-5-5-8-5--8-5-8-5--6-6-6-6-6-6--6-6-6-6--8-5-5-8-5--8-5-8-5--6-6-6-6-6-6--6-6-6-6-|
|-7-5-5-7-5--7-5-7-5--5-5-5-5-5-5--5-5-5-5--7-5-5-7-5--7-5-7-5--5-5-5-5-5-5--5-5-5-5-|
|-5-5-5-5-5--5-5-5-5--7-7-7-7-7-7--7-7-7-7--5-5-5-5-5--5-5-5-5--7-7-7-7-7-7--7-7-7-7-|
|---3-3---3----3---3--------------------------3-3---3----3---3-----------------------|
|------------------------------------------------------------------------------------|

|-0-3-3-0-3--0-3-0-3--5-5-5-5-5-------5-|
|-8-5-5-8-5--8-5-8-5--6-6-6-6-6-------6-|
|-7-5-5-7-5--7-5-7-5--5-5-5-5-5-------5-|
|-5-5-5-5-5--5-5-5-5--7-7-7-7-7-5-7-5-7-|
|---3-3---3----3---3--------------------|
|---------------------------------------|

|-0-3-3-0-3--0-3-0-3--5-5-5-5-5-5--5-5-5-5--0-3-3-0-3--0-3-0-3--5-5-5-5-5-5--5-5-5-5-|
|-8-5-5-8-5--8-5-8-5--6-6-6-6-6-6--6-6-6-6--8-5-5-8-5--8-5-8-5--6-6-6-6-6-6--6-6-6-6-|
|-7-5-5-7-5--7-5-7-5--5-5-5-5-5-5--5-5-5-5--7-5-5-7-5--7-5-7-5--5-5-5-5-5-5--5-5-5-5-|
|-5-5-5-5-5--5-5-5-5--7-7-7-7-7-7--7-7-7-7--5-5-5-5-5--5-5-5-5--7-7-7-7-7-7--7-7-7-7-|
|---3-3---3----3---3--------------------------3-3---3----3---3-----------------------|
|------------------------------------------------------------------------------------|

|-0-3-3-0-3--0-3-0-3--5-5-5-5-5-5--5-5-5-5--0-3-3-0-3--0-3-0-3--5-5-5-5-5-5--5-5-5-5-|
|-8-5-5-8-5--8-5-8-5--6-6-6-6-6-6--6-6-6-6--8-5-5-8-5--8-5-8-5--6-6-6-6-6-6--6-6-6-6-|
|-7-5-5-7-5--7-5-7-5--5-5-5-5-5-5--5-5-5-5--7-5-5-7-5--7-5-7-5--5-5-5-5-5-5--5-5-5-5-|
|-5-5-5-5-5--5-5-5-5--7-7-7-7-7-7--7-7-7-7--5-5-5-5-5--5-5-5-5--7-7-7-7-7-7--7-7-7-7-|
|---3-3---3----3---3--------------------------3-3---3----3---3-----------------------|
|------------------------------------------------------------------------------------|

|-0-3-3-0-3--0-3-0-3--5-5-5-5-5-5--5-5-5-5--0-3-3-0-3--0-3-0-3--5-5-5-5-5-5--5-5-5-5-|
|-8-5-5-8-5--8-5-8-5--6-6-6-6-6-6--6-6-6-6--8-5-5-8-5--8-5-8-5--6-6-6-6-6-6--6-6-6-6-|
|-7-5-5-7-5--7-5-7-5--5-5-5-5-5-5--5-5-5-5--7-5-5-7-5--7-5-7-5--5-5-5-5-5-5--5-5-5-5-|
|-5-5-5-5-5--5-5-5-5--7-7-7-7-7-7--7-7-7-7--5-5-5-5-5--5-5-5-5--7-7-7-7-7-7--7-7-7-7-|
|---3-3---3----3---3--------------------------3-3---3----3---3-----------------------|
|------------------------------------------------------------------------------------|

|-0-3-3-0-3--0-3-0-3--5-5-5-5-5-5--5-5-5-5--0-3-3-0-3--0-3-0-3--5-5-5-5-5-5--5-5-5-5-|
|-8-5-5-8-5--8-5-8-5--6-6-6-6-6-6--6-6-6-6--8-5-5-8-5--8-5-8-5--6-6-6-6-6-6--6-6-6-6-|
|-7-5-5-7-5--7-5-7-5--5-5-5-5-5-5--5-5-5-5--7-5-5-7-5--7-5-7-5--5-5-5-5-5-5--5-5-5-5-|
|-5-5-5-5-5--5-5-5-5--7-7-7-7-7-7--7-7-7-7--5-5-5-5-5--5-5-5-5--7-7-7-7-7-7--7-7-7-7-|
|---3-3---3----3---3--------------------------3-3---3----3---3-----------------------|
|------------------------------------------------------------------------------------|

|-5-----------5------1--0-0--0--0-0---0-0--0-0---5-5-5-5-5-5--5-5-5-5--0-3-3-0-3--0-3-0-3-|
|-7--------1--6---------8-8--8--8-8---8-8--8-8---6-6-6-6-6-6--6-6-6-6--8-5-5-8-5--8-5-8-5-|
|-7------2----5--0-5----7-0--0--7-0---7-0--7-0---5-5-5-5-5-5--5-5-5-5--7-5-5-7-5--7-5-7-5-|
|-7----5------7---------5-10-10-5-10--5-10-5-10--7-7-7-7-7-7--7-7-7-7--5-5-5-5-5--5-5-5-5-|
|-5--5-------------------------------------------------------------------3-3---3----3---3-|
|-----------------------------------------------------------------------------------------|

|-5-5-5-5-5-5--5-5-5-5--0-3-3-0-3--0-3-0-3--5-5-5-5-5-------5--0-3-3-0-3--0-3-0-3-|
|-6-6-6-6-6-6--6-6-6-6--8-5-5-8-5--8-5-8-5--6-6-6-6-6-------6--8-5-5-8-5--8-5-8-5-|
|-5-5-5-5-5-5--5-5-5-5--7-5-5-7-5--7-5-7-5--5-5-5-5-5-------5--7-5-5-7-5--7-5-7-5-|
|-7-7-7-7-7-7--7-7-7-7--5-5-5-5-5--5-5-5-5--7-7-7-7-7-5-7-5-7--5-5-5-5-5--5-5-5-5-|
|-------------------------3-3---3----3---3-----------------------3-3---3----3---3-|
|---------------------------------------------------------------------------------|

|-5-5-5-5-5-5--5-5-5-5--0-3-3-0-3--0-3-0-3--5-5-5-5-5-5--5-5-5-5--0-3-3-0-3--0-3-0-3-|
|-6-6-6-6-6-6--6-6-6-6--8-5-5-8-5--8-5-8-5--6-6-6-6-6-6--6-6-6-6--8-5-5-8-5--8-5-8-5-|
|-5-5-5-5-5-5--5-5-5-5--7-5-5-7-5--7-5-7-5--5-5-5-5-5-5--5-5-5-5--7-5-5-7-5--7-5-7-5-|
|-7-7-7-7-7-7--7-7-7-7--5-5-5-5-5--5-5-5-5--7-7-7-7-7-7--7-7-7-7--5-5-5-5-5--5-5-5-5-|
|-------------------------3-3---3----3---3--------------------------3-3---3----3---3-|
|------------------------------------------------------------------------------------|

|-5-5-5-5-5-5--5-5-5-5--0-3-3-0-3--0-3-0-3--5-5-5-5-5-5--5-5-5-5--0-3-3-0-3--0-3-0-3-|
|-6-6-6-6-6-6--6-6-6-6--8-5-5-8-5--8-5-8-5--6-6-6-6-6-6--6-6-6-6--8-5-5-8-5--8-5-8-5-|
|-5-5-5-5-5-5--5-5-5-5--7-5-5-7-5--7-5-7-5--5-5-5-5-5-5--5-5-5-5--7-5-5-7-5--7-5-7-5-|
|-7-7-7-7-7-7--7-7-7-7--5-5-5-5-5--5-5-5-5--7-7-7-7-7-7--7-7-7-7--5-5-5-5-5--5-5-5-5-|
|-------------------------3-3---3----3---3--------------------------3-3---3----3---3-|
|------------------------------------------------------------------------------------|

|-5-5-5-5-5-5--5-5-5-5--0-3-3-0-3--0-3-0-3--5-5-5-5-5-5--5-5-5-5--0-3-3-0-3--0-3-0-3-|
|-6-6-6-6-6-6--6-6-6-6--8-5-5-8-5--8-5-8-5--6-6-6-6-6-6--6-6-6-6--8-5-5-8-5--8-5-8-5-|
|-5-5-5-5-5-5--5-5-5-5--7-5-5-7-5--7-5-7-5--5-5-5-5-5-5--5-5-5-5--7-5-5-7-5--7-5-7-5-|
|-7-7-7-7-7-7--7-7-7-7--5-5-5-5-5--5-5-5-5--7-7-7-7-7-7--7-7-7-7--5-5-5-5-5--5-5-5-5-|
|-------------------------3-3---3----3---3--------------------------3-3---3----3---3-|
|------------------------------------------------------------------------------------|

|-5-5-5-5-5-5--5-5-5-5--0-3-3-0-3--0-3-0-3--5-5-5-5-5-5--5-5-5-5-|
|-6-6-6-6-6-6--6-6-6-6--8-5-5-8-5--8-5-8-5--6-6-6-6-6-6--6-6-6-6-|
|-5-5-5-5-5-5--5-5-5-5--7-5-5-7-5--7-5-7-5--5-5-5-5-5-5--5-5-5-5-|
|-7-7-7-7-7-7--7-7-7-7--5-5-5-5-5--5-5-5-5--7-7-7-7-7-7--7-7-7-7-|
|-------------------------3-3---3----3---3-----------------------|
|----------------------------------------------------------------|

|-0-3-3-0-3--0-3-0-3--5-5-5-5-5-5--5-5-5-5--0-3-3-0-3--0-3-0-3--5-5-5-5-5-5--5-5-5-5-|
|-8-5-5-8-5--8-5-8-5--6-6-6-6-6-6--6-6-6-6--8-5-5-8-5--8-5-8-5--6-6-6-6-6-6--6-6-6-6-|
|-7-5-5-7-5--7-5-7-5--5-5-5-5-5-5--5-5-5-5--7-5-5-7-5--7-5-7-5--5-5-5-5-5-5--5-5-5-5-|
|-5-5-5-5-5--5-5-5-5--7-7-7-7-7-7--7-7-7-7--5-5-5-5-5--5-5-5-5--7-7-7-7-7-7--7-7-7-7-|
|---3-3---3----3---3--------------------------3-3---3----3---3-----------------------|
|------------------------------------------------------------------------------------|

|-5-----------5------1--0-0--0-0--0--0-0--0-0---5-5-5-5-5-5--5-5-5-5-----------------|
|-7--------1--6---------8-8--8-8--8--8-8--8-8---6-6-6-6-6-6--6-6-6-6----6----8----10-|
|-7------2----5--0-5----7-0--7-0--0--7-0--7-0---5-5-5-5-5-5--5-5-5-5----7----9----10-|
|-7----5------7---------5-10-5-10-10-5-10-5-10--7-7-7-7-7-7--7-7-7-7----7----9----10-|
|-5--5-------------------------------------------------------------------------------|
|------------------------------------------------------------------------------------|

|-----------------------------------------------------------------------|
|--------------------------------------------------10-10-10-10-10-10-10-|
|-12-12-12-12-12-12-12-12-12-12-12-12-12-12-12-12--10-10-10-10-10-10-10-|
|-12-12-12-12-12-12-12-12-12-12-12-12-12-12-12-12--10-10-10-10-10-10-10-|
|-12-12-12-12-12-12-12-12-12-12-12-12-12-12-12-12--10-10-10-10-10-10-10-|
|-----------------------------------------------------------------------|

|-0------0--0-----0-----0------5-5-5-5-5-5--5-5-5-5--0-3-0--0----0----0----|
|-8---8--8--8--8--8--8--8--8---6-6-6-6-6-6--6-6-6-6--8-5-8--8-8--8-8--8-8--|
|-7---9--10-7--9--7--9--7--9---5-5-5-5-5-5--5-5-5-5--7-5-10-7-9--7-9--7-9--|
|-----10-10----10----10----10--7-7-7-7-7-7--7-7-7-7--5-5-10-5-10-5-10-5-10-|
|-10--10-10-10-10-10-10-10-10--------------------------3-10---10---10---10-|
|--------------------------------------------------------------------------|

|-5-5-5-5-5-5--5-5-5-5--0-3-0--0----0----0-----5-5-5-5-5-5--5-5-5-5-|
|-6-6-6-6-6-6--6-6-6-6--8-5-8--8-8--8-8--8-8---6-6-6-6-6-6--6-6-6-6-|
|-5-5-5-5-5-5--5-5-5-5--7-5-10-7-9--7-9--7-9---5-5-5-5-5-5--5-5-5-5-|
|-7-7-7-7-7-7--7-7-7-7--5-5-10-5-10-5-10-5-10--7-7-7-7-7-7--7-7-7-7-|
|-------------------------3-10---10---10---10-----------------------|
|-------------------------------------------------------------------|

|-5-----------5--------5--0-3-0--0----0----0-----5-5-5-5-5-5--5-5-5-5-|
|-7--------1--6--------6--8-5-8--8-8--8-8--8-8---6-6-6-6-6-6--6-6-6-6-|
|-7------2-0--5--0---5----6-5-10-7-9--7-9--7-9---5-5-5-5-5-5--5-5-5-5-|
|-7----5------7----7------5-5-10-5-10-5-10-5-10--7-7-7-7-7-7--7-7-7-7-|
|-5--5----------------------3-10---10---10---10-----------------------|
|---------------------------------------------------------------------|

|-0-3-0--0----0----0-----5-5-5-5-5-5--5-5-5-5--0-3-3-0-3--0-3-0-3--5-5-5-5-5-------5-|
|-8-5-8--8-8--8-8--8-8---6-6-6-6-6-6--6-6-6-6--8-5-5-8-5--8-5-8-5--6-6-6-6-6-------6-|
|-7-5-10-7-9--7-9--7-9---5-5-5-5-5-5--5-5-5-5--7-5-5-7-5--7-5-7-5--5-5-5-5-5-------5-|
|-5-5-10-5-10-5-10-5-10--7-7-7-7-7-7--7-7-7-7--5-5-5-5-5--5-5-5-5--7-7-7-7-7-5-7-5-7-|
|---3-10---10---10---10--------------------------3-3---3----3---3--------------------|
|------------------------------------------------------------------------------------|

|-0-3-3-0-3--0-3-0-3--5-5-5-5-5-5--5-5-5-5--0-3-3-0-5--0-3-0-3--5-5-5-5-5-5--5-5-5-5-|
|-8-5-5-8-5--8-5-8-5--6-6-6-6-6-6--6-6-6-6--8-5-5-8-5--8-5-8-5--6-6-6-6-6-6--6-6-6-6-|
|-7-5-5-7-5--7-5-7-5--5-5-5-5-5-5--5-5-5-5--7-5-5-7-5--7-5-7-5--5-5-5-5-5-5--5-5-5-5-|
|-5-5-5-5-5--5-5-5-5--7-7-7-7-7-7--7-7-7-7--5-5-5-5-5--5-5-5-5--7-7-7-7-7-7--7-7-7-7-|
|---3-3---3----3---3--------------------------3-3---3----3---3-----------------------|
|------------------------------------------------------------------------------------|

|-0-3-3-0-3--0-3-0-3--5-5-5-5-5-5--5-5-5-5--0-3-3-0-3--0-3-0-3--5-5-5-5-5-5--5-5-5-5-|
|-8-5-5-8-5--8-5-8-5--6-6-6-6-6-6--6-6-6-6--8-5-5-8-5--8-5-8-5--6-6-6-6-6-6--6-6-6-6-|
|-7-5-5-7-5--7-5-7-5--5-5-5-5-5-5--5-5-5-5--7-5-5-7-5--7-5-7-5--5-5-5-5-5-5--5-5-5-5-|
|-5-5-5-5-5--5-5-5-5--7-7-7-7-7-7--7-7-7-7--5-5-5-5-5--5-5-5-5--7-7-7-7-7-7--7-7-7-7-|
|---3-3---3----3---3--------------------------3-3---3----3---3-----------------------|
|------------------------------------------------------------------------------------|

|-0-3-3-0-3--0-3-0-3--5-5-5-5-5-5--5-5-5-5--0-3-3-0-3--0-3-0-3--5-5-5-5-5-5--5-5-5-5-|
|-8-5-5-8-5--8-5-8-5--6-6-6-6-6-6--6-6-6-6--8-5-5-8-5--8-5-8-5--6-6-6-6-6-6--6-6-6-6-|
|-7-5-5-7-5--7-5-7-5--5-5-5-5-5-5--5-5-5-5--7-5-5-7-5--7-5-7-5--5-5-5-5-5-5--5-5-5-5-|
|-5-5-5-5-5--5-5-5-5--7-7-7-7-7-7--7-7-7-7--5-5-5-5-5--5-5-5-5--7-7-7-7-7-7--7-7-7-7-|
|---3-3---3----3---3--------------------------3-3---3----3---3-----------------------|
|------------------------------------------------------------------------------------|

|-5-----------5------1--0-0--0--0-0--0-0---5-5-5-5-5-5--5-5-5-5--0-3-3-0-3--0-3-0-3-|
|-7--------1--6---------8-8--8--8-8--8-8---6-6-6-6-6-6--6-6-6-6--8-5-5-8-5--8-5-8-5-|
|-7------2----5--0-5----7-0--0--7-0--7-0---5-5-5-5-5-5--5-5-5-5--7-5-5-7-5--7-5-7-5-|
|-7----5------7---------5-10-10-5-10-5-10--7-7-7-7-7-7--7-7-7-7--5-5-5-5-5--5-5-5-5-|
|-5--5-------------------------------------------------------------3-3---3----3---3-|
|-----------------------------------------------------------------------------------|

|-5-5-5-5-5-5--5-5-5-5--0-3-3-0-3--0-3-0-3--5-5-5-5-5-5--5-5-5-5--0-3-3-0-3--0-3-0-3-|
|-6-6-6-6-6-6--6-6-6-6--8-5-5-8-5--8-5-8-5--6-6-6-6-6-6--6-6-6-6--8-5-5-8-5--8-5-8-5-|
|-5-5-5-5-5-5--5-5-5-5--7-5-5-7-5--7-5-7-5--5-5-5-5-5-5--5-5-5-5--7-5-5-7-5--7-5-7-5-|
|-7-7-7-7-7-7--7-7-7-7--5-5-5-5-5--5-5-5-5--7-7-7-7-7-7--7-7-7-7--5-5-5-5-5--5-5-5-5-|
|-------------------------3-3---3----3---3--------------------------3-3---3----3---3-|
|------------------------------------------------------------------------------------|

|-5-5-5-5-5-5--5-5-5-5--0-3-3-0-3--0-3-0-3--5-5-5-5-5-5--5-5-5-5-|
|-6-6-6-6-6-6--6-6-6-6--8-5-5-8-5--8-5-8-5--6-6-6-6-6-6--6-6-6-6-|
|-5-5-5-5-5-5--5-5-5-5--7-5-5-7-5--7-5-7-5--5-5-5-5-5-5--5-5-5-5-|
|-7-7-7-7-7-7--7-7-7-7--5-5-5-5-5--5-5-5-5--7-7-7-7-7-7--7-7-7-7-|
|-------------------------3-3---3----3---3-----------------------|
|----------------------------------------------------------------|

|-5--------0----1--1-----1-1--0-3-3-0-3--0-3-0-3--5-5-5-5-5-5--5-5-5-5-|
|-7----------1--1--1-1-1-1-1--8-5-5-8-5--8-5-8-5--6-6-6-6-6-6--6-6-6-6-|
|-7------2------2--2----------7-5-5-7-5--7-5-7-5--5-5-5-5-5-5--5-5-5-5-|
|-7----5----------------------5-5-5-5-5--5-5-5-5--7-7-7-7-7-7--7-7-7-7-|
|-5--5--------------------------3-3---3----3---3-----------------------|
|----------------------------------------------------------------------|

|-0-3-3-0-3--0-3-0-5--5-5-5-5-5-5--5-5-5-5--0-3-3-0-3--0-3-0-3--5-5-5-5-5-5--5-5-5-5-|
|-8-5-5-8-5--8-5-8-5--6-6-6-6-6-6--6-6-6-6--8-5-5-8-5--8-5-8-5--6-6-6-6-6-6--6-6-6-6-|
|-7-5-5-7-5--7-5-7-5--5-5-5-5-5-5--5-5-5-5--7-5-5-7-5--7-5-7-5--5-5-5-5-5-5--5-5-5-5-|
|-5-5-5-5-5--5-5-5-5--7-7-7-7-7-7--7-7-7-7--5-5-5-5-5--5-5-5-5--7-7-7-7-7-7--7-7-7-7-|
|---3-3---3----3---3--------------------------3-3---3----3---3-----------------------|
|------------------------------------------------------------------------------------|

|-0-3-3-0-3--0-3-0-5--5-5-5-5-5-5--5-5-5-5--0-3-3-0-3--0-3-0-3--5-5-5-5-5-5--5-5-5-5-|
|-8-5-5-8-5--8-5-8-5--6-6-6-6-6-6--6-6-6-6--8-5-5-8-5--8-5-8-5--6-6-6-6-6-6--6-6-6-6-|
|-7-5-5-7-5--7-5-7-5--5-5-5-5-5-5--5-5-5-5--7-5-5-7-5--7-5-7-5--5-5-5-5-5-5--5-5-5-5-|
|-5-5-5-5-5--5-5-5-5--7-7-7-7-7-7--7-7-7-7--5-5-5-5-5--5-5-5-5--7-7-7-7-7-7--7-7-7-7-|
|---3-3---3----3---3--------------------------3-3---3----3---3-----------------------|
|------------------------------------------------------------------------------------|

|-0-3-3-0-3--0-3-0-5--5-5-5-5-5-5--5-5-5-5--0-3-3-0-3--0-3-0-3--5-5-5-5-5-5--5-5-5-5-|
|-8-5-5-8-5--8-5-8-5--6-6-6-6-6-6--6-6-6-6--8-5-5-8-5--8-5-8-5--6-6-6-6-6-6--6-6-6-6-|
|-7-5-5-7-5--7-5-7-5--5-5-5-5-5-5--5-5-5-5--7-5-5-7-5--7-5-7-5--5-5-5-5-5-5--5-5-5-5-|
|-5-5-5-5-5--5-5-5-5--7-7-7-7-7-7--7-7-7-7--5-5-5-5-5--5-5-5-5--7-7-7-7-7-7--7-7-7-7-|
|---3-3---3----3---3--------------------------3-3---3----3---3-----------------------|
|------------------------------------------------------------------------------------|

|-0-3-3-0-3--0-3-0-5--5-5-5-5-5-5--5-5-5-5--0-3-3-0-3--0-3-0-3--5-5-5-5-5-5--5-5-5-5-|
|-8-5-5-8-5--8-5-8-5--6-6-6-6-6-6--6-6-6-6--8-5-5-8-5--8-5-8-5--6-6-6-6-6-6--6-6-6-6-|
|-7-5-5-7-5--7-5-7-5--5-5-5-5-5-5--5-5-5-5--7-5-5-7-5--7-5-7-5--5-5-5-5-5-5--5-5-5-5-|
|-5-5-5-5-5--5-5-5-5--7-7-7-7-7-7--7-7-7-7--5-5-5-5-5--5-5-5-5--7-7-7-7-7-7--7-7-7-7-|
|---3-3---3----3---3--------------------------3-3---3----3---3-----------------------|
|------------------------------------------------------------------------------------|

|-0-3-3-0-3--0-3-0-5--5-5-5-5-5-5--5-5-5-5--0-3-3-0-3--0-3-0-3--5-5-5-5-5-5--5-5-5-5-|
|-8-5-5-8-5--8-5-8-5--6-6-6-6-6-6--6-6-6-6--8-5-5-8-5--8-5-8-5--6-6-6-6-6-6--6-6-6-6-|
|-7-5-5-7-5--7-5-7-5--5-5-5-5-5-5--5-5-5-5--7-5-5-7-5--7-5-7-5--5-5-5-5-5-5--5-5-5-5-|
|-5-5-5-5-5--5-5-5-5--7-7-7-7-7-7--7-7-7-7--5-5-5-5-5--5-5-5-5--7-7-7-7-7-7--7-7-7-7-|
|---3-3---3----3---3--------------------------3-3---3----3---3-----------------------|
|------------------------------------------------------------------------------------|

|-0-3-3-0-3--0-3-0-5--5-5-5-5-5-5--5-5-5-5--0-3-3-0-3--0-3-0-3--5-5-5-5-5-5--5-5-5-5-|
|-8-5-5-8-5--8-5-8-5--6-6-6-6-6-6--6-6-6-6--8-5-5-8-5--8-5-8-5--6-6-6-6-6-6--6-6-6-6-|
|-7-5-5-7-5--7-5-7-5--5-5-5-5-5-5--5-5-5-5--7-5-5-7-5--7-5-7-5--5-5-5-5-5-5--5-5-5-5-|
|-5-5-5-5-5--5-5-5-5--7-7-7-7-7-7--7-7-7-7--5-5-5-5-5--5-5-5-5--7-7-7-7-7-7--7-7-7-7-|
|---3-3---3----3---3--------------------------3-3---3----3---3-----------------------|
|------------------------------------------------------------------------------------|

|-0-3-3-0-3--0-3-0-5--5-5-5-5-5-5--5-5-5-5--0-3-3-0-3--0-3-0-3-----|
|-8-5-5-8-5--8-5-8-5--6-6-6-6-6-6--6-6-6-6--8-5-5-8-5--8-5-8-5---1-|
|-7-5-5-7-5--7-5-7-5--5-5-5-5-5-5--5-5-5-5--7-5-5-7-5--7-5-7-5---2-|
|-5-5-5-5-5--5-5-5-5--7-7-7-7-7-7--7-7-7-7--5-5-5-5-5--5-5-5-5---3-|
|---3-3---3----3---3--------------------------3-3---3----3---3---3-|
|----------------------------------------------------------------1-|
            
Submit corrections

comments powered by Disqus
↑ Back to top | Rolling Stones Tabs for You Can't Always Get What You Want. Lyrics for acoustic guitar and electric guitar. Tablatures and chords are parodies/interpretations of the original songs. You may use it for private study, scholarship, research or language learning purposes only