» » »

Rolling Stones, Under The Boardwalk Tabs (ver.1)

Artists:  A B C D E F G H I J K L M N O P Q R S T U V W X Y Z # 

Under The Boardwalk Tabs (ver.1)

Rolling Stones Tabs
 Rating:
4/5 (4 votes)
Under The Boardwalk lessons Tabs too difficult? Try these video lessons and learn fast
                
Tuning: standard

                E                                          B
       When the sun beats down and burns the tar up on the roof
e|--------------------12-------------------------------------7---------------|
B|--------------------12-------------------------------------7---------------|
G|------------------9--------------------------------------4-----------------|
D|---------------------------------------------------------------------------|
A|---------------------------------------------------------------------------|
E|---------------------------------------------------------------------------|

      B                                                           E
      And your shoes get so hot you wish your tired feet were fireproof
e|-----7------------------------------------------------------------12-------|
B|-----7------------------------------------------------------------12-------|
G|---4------------------------------------------------------------9----------|
D|---------------------------------------------------------------------------|
A|---------------------------------------------------------------------------|
E|---------------------------------------------------------------------------|

     E         A                      E                         B
     Under the boardwalk  down by the sea  on a blanket with my baby
e|-------------------5------------------12------------------------9\----12---|
B|-------------------5------------------12----------------------11\-----12---|
G|-----------------2------------------9------------------------------9-------|
D|---------------------------------------------------------------------------|
A|---------------------------------------------------------------------------|
E|---------------------------------------------------------------------------|

                      E                C#m
    That's where I'll be     Under the boardwalk out of the sun
e|----11----------------12-----------------9---------------------------------|
B|----11----------------12-----------------9---------------------------------|
G|--8----------------9------------------6------------------------------------|
D|---------------------------------------------------------------------------|
A|---------------------------------------------------------------------------|
E|---------------------------------------------------------------------------|

             B                                             C#m
   Under the boardwalk we'll be having some fun  under the boardwalk
e|-------------7----------------------------------------------9--------------|
B|-------------7----------------------------------------------9--------------|
G|-----------4----------------------------------------------6----------------|
D|---------------------------------------------------------------------------|
A|---------------------------------------------------------------------------|
E|---------------------------------------------------------------------------|

                                  B
   People walking above under the boardwalk we were falling in love
e|----------------------------------7----------------------------------------|
B|----------------------------------7----------------------------------------|
G|--------------------------------4------------------------------------------|
D|---------------------------------------------------------------------------|
A|---------------------------------------------------------------------------|
E|---------------------------------------------------------------------------|

             C#m
   Under the boardwalk boardwalk
e|------------9--------------------------------------------------------------|
B|------------9--------------------------------------------------------------|
G|----------6----------------------------------------------------------------|
D|---------------------------------------------------------------------------|
A|---------------------------------------------------------------------------|
E|---------------------------------------------------------------------------|

   Guitar Solo
e|---------------------------------------------------------------------------|
B|---------------------------------------------------------------------------|
G|---------4-----------------------------------------------------------------|
D|-----4-6---6-4------------------------7-4-4-6-7-6-4-7-6-4-7-6-4------------|
A|-4-7----------7-4-6-7-7-7-7-6-4-4-6-6---------------------------7-6--------|
E|---------------------------------------------------------------------------|

e|---------------------------------------------------------------------------|
B|---------------------------------------------------------------------------|
G|---------------------------------------------------------------------------|
D|---------------------------------------------------------------------------|
A|-4-----4-6-4---4--h6-------------------------------------------------------|
E|---7-7-------7-------------------------------------------------------------|


  Repeat chords for following verse/chorus





The happy sound of a carousel
You can almost taste the hot dogs
And french fries they sell

Under the boardwalk
Down by the sea, yeah
On a blanket with my baby
Is where I'll be

(Under the boardwalk) Out of the sun
(Under the boardwalk) We'll be having some fun
(Under the boardwalk) People walking above
(Under the boardwalk) We'll be making love
(Under the boardwalk, boardwalk)

Oh, under the boardwalk
Down by the sea
On a blanket with my baby
Is where I'll be

(Under the boardwalk) Out of the sun
(Under the boardwalk) We'll be having some fun
(Under the boardwalk) People walking above
(Under the boardwalk) We'll be falling in love
(Under the boardwalk, boardwalk)
            
Submit corrections

comments powered by Disqus
↑ Back to top | Rolling Stones Tabs for Under The Boardwalk. Lyrics for acoustic guitar and electric guitar. Tablatures and chords are parodies/interpretations of the original songs. You may use it for private study, scholarship, research or language learning purposes only