» » »

Tumbling Dice Tabs (ver.2)

Artists:  A B C D E F G H I J K L M N O P Q R S T U V W X Y Z # 

Tumbling Dice Tabs (ver.2)

Rolling Stones
Rating:
0/5 (0 votes)

Hard to play? Try these video lessons and learn fast.
                The Rolling Stones - Tumbling Dice

/ = slide
h = hammer on
p = pull off


Song is in Open G tuning, Capo at the fourth fret, same as Happy from the same album.  
Song is performed without a 5th string on the guitar, but it can be kept on if necessary.


Intro

--0-------------------------------|  Play once and go straight into verse.
--1/3/1p0---------------0---------|  Last chord of the intro is the first
--2/4/2p0--0-----0------0---------|  chord of the verse.
--0--------0h2p0-0------0---------|
-----------------2/4/2--0---------|
----------------------------------|

Verse

--------------------------------|
--0------0---1-0------0---1-0---|
--0------0---0-0------0---0-0---|  Repeat 4 times and then go to pre-chorus
--0---2--0---2-0---2--0---2-0---|
--0-0-0--0-0-0-0-0-0--0-0-0-0---|
--------------------------------|

Pre-Chorus

-------------------------------------------------------------|
-7h8p7-0---1-0---7h8p7-0---1-0--5---6--5---6-----8-8-8-8-7---|
-7-----0---0-0---7-----0---0-0--5---5--5---5-----7-7-7-7-7---|  The first
-7h9p7-0---2-0---7h9p7-0---2-0--5---7--5---7-----9-9-9-9-7---|  time go back
-7-----0-0-0-0-0-7-----0-0-0-0--5-5-5--5-5-5--7--7-7-7-7-7---|  to verse, but
-------------------------------------------------------------|  every other
                                                               time go
Chorus                                                         straight to
                                                               chorus
-----------------------------------------|
--1---1----------------------------0-----|
--0h2-0--0---0---0-------0---------0-----|  Play once and then go back to
---------0h2-0---0-------0---------0-----|  verse.
---------------0-2/4/2p0-2/4/2p0-2-0-----|
-----------------------------------------|

Ending

-----------------------------------------|
--1---1---------3/1p0-3/1p0--------------|
--0h2-0--0---0--4/2p0-4/2p0----0---------|
---------0h2-0--------------0h2----------|   Repeat until fade out
-----------------------------------------|
-----------------------------------------|
            
Hard to play? Try these video lessons and learn fast. | Correct




comments powered by Disqus
↑ Back to top | Tablatures and chords are parodies/interpretations of the original songs. You may use it for private study, scholarship, research or language learning purposes only