» » »

Rolling Stones, Time Waits For No One Bass tabs (ver.1)

Artists:  A B C D E F G H I J K L M N O P Q R S T U V W X Y Z # 

Time Waits For No One Bass tabs (ver.1)

Rolling Stones Tabs
Rating:
0/5 (0 votes)
Time Waits For No One lessons Tabs too difficult? Try these video lessons and learn fast
                Rolling Stones – Time Waits for no one


Intro = Chorus 

G |---------------|---------------|---------2-0---|---------------|
D |-----/7--------|---------------|-------2-----2-|--------5---5--|
A |-5-5-----------|-8--8----------|-0--3----------|-3--3----------|
E |----------5-5--|--------8--8---|---------------|---------------|
    D	      A	    F      C         A	      E       C       G
	
Verse

G |----------2-0----|---------------|	Repeat couple of times
D |--------2-----2--|-2-2-2-2-------|
A |-0---3-----------|---------------|
E |-----------------|---------------|

Chorus 

G |---------------|---------------|---------2-0---|---------------|
D |-----/7--------|---------------|-------2-----2-|--------5---5--|
A |-5-5-----------|-8--8----------|-0--3----------|-3--3----------|
E |----------5-5--|--------8--8---|---------------|---------------|
    D	      A	    F      C         A	      E       C       G
	
Bridge / guitar solo

G |---------------|---------------| And variate as much as you like!
D |--------10-10--|---------------|
A |--8-8----------|--8-8----------|
E |---------------|--------8--8---|
      F      C       F      C 
            

comments powered by Disqus
↑ Back to top | Rolling Stones Bass for Time Waits For No One. Lyrics for acoustic guitar and electric guitar. Tablatures and chords are parodies/interpretations of the original songs. You may use it for private study, scholarship, research or language learning purposes only