» » »

Rolling Stones, Sympathy For The Devil Tabs (ver.2)

Artists:  A B C D E F G H I J K L M N O P Q R S T U V W X Y Z # 

Sympathy For The Devil Tabs (ver.2)

Rolling Stones Tabs
 Rating:
4/5 (4 votes)
Sympathy For The Devil lessons Tabs too difficult? Try these video lessons and learn fast
                PROPS GO TO: Mike

Solo 1
e-----------------------------|-----------------------------
B-15b17r15p12-----------------|-15b17r15p12-----------------
G-------------14b16r14p12-----|------------14b16r14p12~-----
D-------------------------14~-|-------------------------14~-
A-----------------------------|-----------------------------
E-----------------------------|-----------------------------

e-------------------|-------------------|-17b19-17~-15b16------
B-------------------|-------------15b17-|------------------17~-
G-------12-14-14b16-|-------12-14-------|----------------------
D-12-14-------------|-12-14-------------|----------------------
A-------------------|-------------------|----------------------
E-------------------|-------------------|----------------------

e-17-15----17--17-15-------15-----|-----15-17-17b19-17-15-17-15-----
B-------17-----------17-15----17~-|-/17-------------------------17~-
G---------------------------------|---------------------------------
D---------------------------------|---------------------------------
A---------------------------------|---------------------------------
E---------------------------------|---------------------------------

e----17b19-17-17b19-17-15h17-15~----|-------------------
B-17-----------------------------17-|-17---17--17-17-17-
G-----------------------------------|-------------------
D-----------------------------------|-------------------
A-----------------------------------|-------------------
E-----------------------------------|-------------------

e----15-17-17b19-17-15-17-15~-|----------15----15-17b19-17-15---------
B-17--------------------------|-17-15-17----17----------------17~-----
G-----------------------------|---------------------------------------
D-----------------------------|---------------------------------------
A-----------------------------|---------------------------------------
E-----------------------------|-----------------------------------12\-

Solo 2 (outro)
e-----------------|----------------|-----------------------
B-----------------|----------------|-15p12-----------------
G-14b16r14p12-----|-14b16r14p12----|-------14b16r14p12-----
D-------------14~-|-------------14~|-------------------14~-
A-----------------|----------------|-----------------------
E-----------------|----------------|-----------------------

e--------------------------------|-12-------------12-------------
B--------------------------------|----15-------------15----------
G-----12-14-14b16-14-12-14-12----|-------12/14----------12/14----
D-/14-------------------------14-|-------------14-------------14-
A--------------------------------|-------------------------------
E--------------------------------|-------------------------------

e-12--------------------|-12----12--------------------
B----15-----------------|-------------15/17~----(17)\-
G-------12/14-----------|-----------------------------
D-------------14-12-14\-|-----------------------------
A-----------------------|-----------------------------
E-----------------------|-----------------------------

e-17b19-17-15-17-15~-|----------------|--------------------------------------
B--------------------|----------------|--------------------------------------
G--------------------|-14b16r14p12----|-------12-14--------------------------
D--------------------|-------------14-|-12-14-------14\----14\----14\----14\-
A--------------------|----------------|--------------------------------------
E--------------------|----------------|--------------------------------------

e-----15-17-17b19-17-15h17-|-17b19-17~-|-------------|-------------
B-/17----------------------|-----------|-------------|-------------
G--------------------------|-----------|-------------|-------------
D--------------------------|-----------|-------------|-------------
A--------------------------|-----------|-14\-14\-14\-|-14\-14\-14\-
E--------------------------|-----------|-------------|-------------

e----------|----------------|-12-------------|---------------------------
B----------|----------------|----15----------|-15/17~----15/17~----(17)\-
G----------|-14b16r14p12----|-------12/14----|---------------------------
D-------14-|-------------14-|-------------14-|---------------------------
A-14/16----|----------------|----------------|---------------------------
E----------|----------------|----------------|---------------------------

e-----15-17-17b19-17-15-17-15-----17b19-17-15-17b19-17-15-17-15----
B-/17-------------------------17--------------------------------17-
G------------------------------------------------------------------
D------------------------------------------------------------------
A------------------------------------------------------------------
E------------------------------------------------------------------
            
Submit corrections

comments powered by Disqus
↑ Back to top | Rolling Stones Tabs for Sympathy For The Devil. Lyrics for acoustic guitar and electric guitar. Tablatures and chords are parodies/interpretations of the original songs. You may use it for private study, scholarship, research or language learning purposes only