» » »

Rolling Stones, Sympathy For The Devil Bass tabs (ver.1)

Artists:  A B C D E F G H I J K L M N O P Q R S T U V W X Y Z # 

Sympathy For The Devil Bass tabs (ver.1)

Rolling Stones Tabs
Rating:
0/5 (0 votes)
Sympathy For The Devil lessons Tabs too difficult? Try these video lessons and learn fast
                Introduction

   2x
G|----------------|----------------|----------------|----------------|
D|----------------|----------------|----------------|----------------|
A|7---------------|5---------------|----------------|7---------------|
E|----------------|----------------|5---------------|----------------|


Main riff
 
(2x)
  1   2   3   4    1   2   3   4    1   2   3   4    1   2   3   4  
G|----------------|----------------|----------------|----------------|
D|----------------|----------------|----------------|----------------|
A|7-7-7--7-7--7-7-|5-5-5--5-5--5-5-|4-4------4--5-6-|7-7-7--7-7--7-7-|
E|------7----7-7--|------5----5-5--|----5-55--------|------7----7-7-7|


"Pleased to meet you..."

G|----------------|----------------|----------------|----------------|----------------|
D|----------------|----------------|----------------|----------------|----------------|
A|7-7-7--7-7--7-7-|----------------|-----------4-567|7-7-7--7-7--7-7-|7-7-7--7-7------|
E|------7----7-7--|7-7-7-77-7-7777-|7-77-7-7-7------|------7----7-7--|------7---4-5-6-|

G|----------------|----------------|----------------|----------------|
D|----------------|----------------|----------------|-------7-6--76--|
A|----------------|-----------4-567|7-7-7--7-7--7-7-|7-7-7------7--7-|
E|7-7-7-77-74-5-6-|7-77-7-7-7------|------7----7-7--|----------------|


G|----------------|----------------|----------------|----------------|
D|----------------|-------5-4--54--|----------------|----------------|
A|7-7-7--7-7--7-7-|5-5-5-5----5--5-|4-4-4-4--44-5-6-|7-7-7--7-7-75-6-|
E|------7----7-7--|----------------|-------5--------|------7---------|


Main riff
 
(2x)
  1   2   3   4    1   2   3   4    1   2   3   4    1   2   3   4  
G|----------------|----------------|----------------|----------------|
D|----------------|----------------|----------------|----------------|
A|7-7-7--7-7--7-7-|5-5-5--5-5--5-5-|4-4------4--5-6-|7-7-7--7-7--7-7-|
E|------7----7-7--|------5----5-5--|----5-55--------|------7----7-7-7|


"Pleased to meet you..."

G|----------------|----------------|----------------|----------------|----------------|
D|----------------|----------------|----------------|----------------|----------------|
A|7-7-7--7-7--7-7-|----------------|-----------4-567|7-7-7--7-7--7-7-|7-7-7--7-7------|
E|------7----7-7--|7-7-7-77-7-7777-|7-77-7-7-7------|------7----7-7--|------7---4-5-6-|

G|----------------|----------------|----------------|----------------|
D|----------------|----------------|----------------|-------7-6--76--|
A|----------------|-----------4-567|7-7-7--7-7--7-7-|7-7-7------7--7-|
E|7-7-7-77-74-5-6-|7-77-7-7-7------|------7----7-7--|----------------|


Main riff
 
(4x)
  1   2   3   4    1   2   3   4    1   2   3   4    1   2   3   4  
G|----------------|----------------|----------------|----------------|
D|----------------|----------------|----------------|----------------|
A|7-7-7--7-7--7-7-|5-5-5--5-5--5-5-|4-4------4--5-6-|7-7-7--7-7--7-7-|
E|------7----7-7--|------5----5-5--|----5-55--------|------7----7-7-7|


"Pleased to meet you..."

G|----------------|----------------|----------------|----------------|----------------|
D|----------------|----------------|----------------|-------7-6--76--|----------------|
A|7-7-7--7-7--7-7-|----------------|-----------4-567|7-7-7------7--7-|7-7-7--7-7------|
E|------7----7-7--|7-7-7-77-7-7777-|7-77-7-7-7------|----------------|------7---4-5-6-|

G|----------------|----------------|----------------|----------------|
D|----------------|----------------|-------7-6--76--|----------------| 
A|----------------|-----------4-567|7-7-7------7--7-|7-7-7--7-7--7-7-|
E|7-7-7-77-74-5-6-|7-77-7-7-7------|----------------|------7----7-7--|


Main riff
 
(3x)
  1   2   3   4    1   2   3   4    1   2   3   4    1   2   3   4  
G|----------------|----------------|----------------|----------------|
D|----------------|----------------|----------------|----------------|
A|7-7-7--7-7--7-7-|5-5-5--5-5--5-5-|4-4------4--5-6-|7-7-7--7-7--7-7-|
E|------7----7-7--|------5----5-5--|----5-55--------|------7----7-7-7|



 1   2   3   4    1   2   3   4    1   2   3   4    1   2   3   4  
G|----------------|----------------|----------------|----------------|
D|-------7-6--76--|-------5-4--54--|----------------|----------------|
A|7-7-7-7----7--7-|5-5-5-5----5--5-|4-4-4-4--44-5-6-|7-7-7--7-7-75-6-|
E|----------------|----------------|-------5--------|------7---------|



"Pleased to meet you..."

G|----------------|----------------|----------------|----------------|----------------|
D|----------------|----------------|----------------|----------------|----------------|
A|7-7-7--7-7--7-7-|----------------|-----------4-567|7-7-7--7-7--7-7-|7-7-7--7-7------|
E|------7----7-7--|7-7-7-77-7-7777-|7-77-7-7-7------|------7----7-7--|------7---4-5-6-|

G|----------------|----------------|----------------|----------------|
D|----------------|----------------|----------------|----------------| 
A|----------------|-----------4-567|7-7-7--7-7--7-7-|7-7-7--7-7--7-7-|
E|7-7-7-77-74-5-6-|7-77-7-7-7------|------7----7-7--|------7----7-7--|

Main riff
 
(4x)
  1   2   3   4    1   2   3   4    1   2   3   4    1   2   3   4  
G|----------------|----------------|----------------|----------------|
D|----------------|----------------|----------------|----------------|
A|7-7-7--7-7--7-7-|5-5-5--5-5--5-5-|4-4------4--5-6-|7-7-7--7-7--7-7-|
E|------7----7-7--|------5----5-5--|----5-55--------|------7----7-7-7|

"Pleased to meet you..."

G|----------------|----------------|----------------|----------------|----------------|
D|----------------|----------------|----------------|-------7-6--76--|----------------|
A|7-7-7--7-7--7-7-|----------------|-----------4-567|7-7-7------7--7-|7-7-7--7-7------|
E|------7----7-7--|7-7-7-77-7-7777-|7-77-7-7-7------|----------------|------7---4-5-6-|

G|----------------|----------------|----------------|----------------|
D|----------------|----------------|----------------|----------------|
A|----------------|-----------4-567|7-7-7--7-7-4-567|7-7-7--7-7--7-7-|
E|7-7-7-77-74-5-6-|7-77-7-7-7------|------7---------|------7----7-7--|


  1   2   3   4     1   2   3   4    1   2   3   4    1   2   3   4  
G|----------------|----------------|----------------|----------------|
D|-------7-6--76--|-------5-4--54--|----------------|----------------|
A|7-7-7-7----7--7-|5-5-5-5----5--5-|4-4-4-4--44-5-6-|7-7-7--7-7-75-6-|
E|----------------|----------------|-------5--------|------7---------|

Main riff
 
(5x)
  1   2   3   4    1   2   3   4    1   2   3   4    1   2   3   4  
G|----------------|----------------|----------------|----------------|
D|----------------|----------------|----------------|----------------|
A|7-7-7--7-7--7-7-|5-5-5--5-5--5-5-|4-4------4--5-6-|7-7-7--7-7--7-7-|
E|------7----7-7--|------5----5-5--|----5-55--------|------7----7-7-7|


 1   2   3   4    1   2   3   4    1   2   3   4    1   2   3   4  
G|----------------|----------------|----------------|----------------| 
D|----------------|----------------|----------------|-------7-6--76--|
A|7-7-7--7-7--7-7-|5-5-5--5-5--5-5-|4-4------4--5-6-|7-7-7------7--7-|
E|------7----7-7--|------5----5-5--|----5-55--------|----------------|


  1   2   3   4    1   2   3   4    1   2   3   4    1   2   3   4  
G|----------------|----------------|----------------|----------------|
D|-------7-6--76--|-------5-4--54--|----------------|-------7-6--76--|
A|7-7-7-7----7--7-|5-5-5-5----5--5-|4-4-4-4--44-5-6-|7-7-7------7--7-|
E|----------------|----------------|-------5--------|----------------|



Main riff
 
(5x)
  1   2   3   4    1   2   3   4    1   2   3   4    1   2   3   4  
G|----------------|----------------|----------------|----------------|
D|----------------|----------------|----------------|----------------|
A|7-7-7--7-7--7-7-|5-5-5--5-5--5-5-|4-4------4--5-6-|7-7-7--7-7--7-7-|
E|------7----7-7--|------5----5-5--|----5-55--------|------7----7-7-7|






End 6:28 Played with it and it seemed fine. Hope this helps. 
            

comments powered by Disqus
↑ Back to top | Rolling Stones Bass for Sympathy For The Devil. Lyrics for acoustic guitar and electric guitar. Tablatures and chords are parodies/interpretations of the original songs. You may use it for private study, scholarship, research or language learning purposes only