» » »

Rolling Stones, Start Me Up Chords (ver.3)

Artists:  A B C D E F G H I J K L M N O P Q R S T U V W X Y Z # 

Start Me Up Chords (ver.3)

Rolling Stones Tabs
 Rating:
4/5 (4 votes)
Start Me Up lessons Tabs too difficult? Try these video lessons and learn fast
1
                Alright, here's the deal. I got the intro down, 100 percent right.
For the verses and choruses, there are two guitars playing.
I have the chords for one guitar, but not the second.
But, I do know the second is very similar to the intro the whole
music video, because Mick Jagger rips sh*t up in the first 20
seconds.

START ME UP
ROLLING STONES


e-5------------5-|--------5------|------------|------------------|
B-5h6--6--6----5-|-6-6h5--5--6---|------------|-----------3-5----|
G-5----5--5----5-|-5-5----5--5--0|-3-3-3-----3|---3---3-3-3-5----|
D-5h7--7--7----5-|-7-7h5--5--7--0|-3-5-3---3-3|-3-5-3-3-3-3-5----|
A-5------------5-|--------5-----0|-3-3-3-3-5-3|-3-3-3-3---3-5----|
E----------------|---------------|------------|------------------|


e-6-5----5-|----------------------1----------|
B-5-6----5-|----------------------1----------|
G-7-5----5-|----------------------0----------|
D---7----5-|----------------------3----------|
A---5----5-|-1-0---3--------3----------------|
E----------|-----3------0-1-1----------------|


VERSE:

      C   E   F5       E   F5   Fsus2
  If you start me up,

F   Fsus2      F    Fsus2 G5  B5         F/A  B5
  If you start me up I'll nev--er stop

       E  F5      F     C/E
  If you start me up

F5   C/E      F5          G5  B5         F/A  B5
  If you start me up I'll nev--er stop

     Fsus2   F         Fsus2
  I'll be runnin' hot

  F      Fsus2     F        Fsus2  G5   B5
  The job we're riggin' now don't  blow my top

A G   C   E    F5           Fsus2
  If you start me up, uh

F     Fsus2     F    G5         B5
  If you start me up I'll never stop, never stop, never stop, never stop


CHORUS:

C5                 D5  F5
  You make a grown man cry

C5                 D5  F5
  You make a grown man cry

  C      C6      G6   C5  E   C5      E   C5
  Spread out the oil, the gasoline

  D  G   A G             E5 D5   C5       Fsus2   F   Fsus2
  I want a smooth ride on a mean mean machine


Jam that sh*t out and you've got yourself a winner.
            
Submit corrections

comments powered by Disqus
↑ Back to top | Rolling Stones Chords for Start Me Up. Lyrics for acoustic guitar and electric guitar. 1 Tablatures and chords are parodies/interpretations of the original songs. You may use it for private study, scholarship, research or language learning purposes only