» » »

Saint Of Me Tabs (ver.2)

Artists:  A B C D E F G H I J K L M N O P Q R S T U V W X Y Z # 

Saint Of Me Tabs (ver.2)

Rolling Stones
Rating:
0/5 (0 votes)

Tabs too difficult? Try these video lessons and learn fast.
                Band: The Rolling Stones
Section: Solos

you're interested.

This is my very first tab, but I do believe the quality is near perfection.
The part that I labelled as a fill can be used as another fill in a different
part of the song.

I hope you enjoy these tabs and find them to be accurate. As far as I can see,
these are the only ones in existance right now. And hopefully if I missed
something you'll at least get the hang of it. Good luck and have fun!


         This part really is just a fill, but the same guitar plays it.
e----------------------------------------------------------------------------|
b--------13------------------------------------------------------------------|
g----10------12b(13)r10~~~------------10—pb(13)r12---------10—12b(13)r12--10-|
d------------------------------11/12-----------------11/12-------------------|
a----------------------------------------------------------------------------|
E----------------------------------------------------------------------------|

  (Solo Begins)
e----------------------------------------------------------------------------|
b--------------10-13------------------(15)r13p10h13b(15)~~~-----15--11-------|
g-----11/12------------11/12-------------------------------------------11/12-|
d----------------------------------------------------------------------------|
a----------------------------------------------------------------------------|
E----------------------------------------------------------------------------|

  (Normal Solo Continued)             ("Low" Solo begins, best if distorted)
e------------------------------------|--------------------------------------|
b----16p11---------------------------|--------------------------------------|
g---------------10--12--10-----------|--------------------------------------|
d------------------------------------|----------------------6-6-----8-6-----|
a------------------------------------|-------6---6---88~~~/----8~~~---------|
E------------------------------------|--6/8-----8---------------------------|
    (Low Solo continued)
e---------------------------------------------------------------------------|
b---------------------------------------------------------------------------|
g---------------------------------------------------------------------------|
d--8b(10)r8-6-8-6-----------------------------------------------------------|
a-----------------8-6-11p8/-------------------------------------------------|
E---------------------------------------------------------------------------|

  (Back to Normal Solo)
e-------------------------13------------------------------------------------|
b---13b(15)~r13--11--13------13b(15)~~~-------------------------------------|
g---------------------------------------------------------------------------|
d---------------------------------------------------------------------------|
a---------------------------------------------------------------------------|
E---------------------------------------------------------------------------|

e--------------------------13-----------------------------------------------|
b-----13b(15)~r13--11--13------13b(15)~r13p11—11~~----13b(15)r13p11---------|
g-------------------------------------------------------------------12------|
d---------------------------------------------------------------------------|
a---------------------------------------------------------------------------|
E---------------------------------------------------------------------------|

e-----------------------13--------------------------------------------------|
b---13b(15)~r13--11--13----13b(15)-13b(15)r13-11-13b(15)r13-11h13p11--------|
g--------------------------------------------------------------------12-----|
d---------------------------------------------------------------------------|
a---------------------------------------------------------------------------|
E---------------------------------------------------------------------------|

e---------------------------------------------------------------------------|
b--13b(16)r13p11h13b(15)r13p11~~~------------11-11--------------------------|
g--------------------------------------10/12-------12/10--------------------|
d---------------------------------------------------------------------------|
a---------------------------------------------------------------------------|
E---------------------------------------------------------------------------|
            
Tabs too difficult? Try these video lessons and learn fast.




comments powered by Disqus
↑ Back to top | Tablatures and chords are parodies/interpretations of the original songs. You may use it for private study, scholarship, research or language learning purposes only