>
 >
Rip This Joint

Rip This Joint Guitar Tabs

Rolling Stones - Rip This Joint chords, tabs, tablatures, lyrics

Guitar lessons | Add/correct | Request | Top 50 tabs Artists:  A B C D E F G H I J K L M N O P Q R S T U V W X Y Z 0-9

Rip This Joint Guitar Tabs – Rolling Stones

CD, Sheet music, Poster

Do you like Rip This Joint? Share with your friends now
Bass TabsChordsTabsUkulele
Open G capo 2 (Capo 2)



     C5    F/C                                            
     E  E  E   E  E  E  E  E     E  E  E  E  E  E  E  E   
D||---------------------------|--------------------------|
B||--------6------------6-----|--------6-----------6-----|
G||--------5------------5-----|--------5-----------5-----|
D||--5--5--7---5--5--5--7--5--|--5--5--7--5--5--5--7--5--|
G||--5--5--5---5--5--5--5--5--|--5--5--5--5--5--5--5--5--|
D||---------------------------|--------------------------|


                                   C/G                 
  E  E  E  E  E  E  E  E     E  E  E   E  E  E  E  E   
--------------------------|---------------------------|
--------6-----------6-----|--------1------------1-----|
--------5-----------5-----|--------0------------0-----|
--5--5--7--5--5--5--7--5--|--L--5--2---0--0--0--2--5--|
--5--5--5--5--5--5--5--5--|--L--5--0---0--0--0--0--5--|
--------------------------|---------------------------|


  E  E  E  E  E  E  E  E     E  E  E  E  E  E  E  E   
--------------------------|--------------------------|
--------6--5--5--5--6--5--|--------6--5--5--5--6--5--|
--------5--5--5--5--5--5--|--------5--5--5--5--5--5--|
--L--5--7--5--5--5--7--5--|--L--5--7--5--5--5--7--5--|
--L--5--5--5--5--5--5--5--|--L--5--5--5--5--5--5--5--|
--------------------------|--------------------------|


                             G5    C/G                 
  E  E  E  E  E  E  E  E     E  E  E   E  E  E  E  E   
--------------------------|---------------------------|
--------6--5--5--5--6-----|--------1------1-----1-----|
--------5--5--5--5--5-----|--------0------0-----0-----|
--L--5--7--5--5--5--7--0--|--0--0--2---0--2--0--2--x--|
--L--5--5--5--5--5--5--0--|--0--0--0---0--0--0--0--x--|
--------------------------|---------------------------|


  C5    F/C                                          
  E  E  Q    E  E  E  E     E  E  E  E  E  E  E  E   
-------------------------|--------------------------|
--------6----5--5--6--6--|--6--6--6--------5--6--x--|
--------5----5--5--5--5--|--5--5--5--------5--5--x--|
--5--5--7----5--5--7--7--|--7--7--7--5--5--5--7--x--|
--5--5--5----5--5--5--5--|--5--5--5--5--5--5--5--x--|
-------------------------|--------------------------|


  G5    C/D                         F/C             C5  
  E  E  E   E  E  E  E  E     E  E  E   E  E  E  E  E   
---------------------------|---------------------------|
--------1------------1-----|--------6---6--L--6--6-----|
--------0------------0-----|--------5---5--L--5--5-----|
--0--0--2---0--0--0--2--0--|--0--0--7---7--L--7--7--5--|
--0--0--0---0--0--0--0--0--|--0--0--5---5--L--5--5--5--|
--------0------------------|---------------------------|


                                                       G5                       
  E  E  E  E  E  E  E  E     E  E  E  E  E  E  Q       E  E  E  E  E  E  E  E   
--------------------------|-------------------------|--------------------------|
--------6-----------6-----|--------6--5--L--5--6----|--------------------------|
--------5-----------5-----|--------5--5--L--5--5----|--------------------------|
--5--5--7--5--5--5--7--5--|--5--5--7--5--L--5--7----|--0--0--2--0--0--0--0--0--|
--5--5--5--5--5--5--5--5--|--5--5--5--5--L--5--5----|--0--0--0--0--0--0--0--0--|
--------------------------|-------------------------|--------------------------|


                             C           F/C       C   
  E  E  E  E  E  E  E  E     E  E  E  E  E   E  E  E   
--------------------------|---------------------------|
--------------------------|--5--5--5--x--6---6--6--5--|
--------------------------|--5--5--5--x--5---5--5--5--|
--0--0--0--0--0--0--0--0--|--5--5--5--x--7---7--7--5--|
--0--0--0--0--0--0--0--0--|--5--5--5--x--5---5--5--5--|
--------------------------|---------------------------|


     F/C                                               
  E  E   E  E  E  E  E  E     E  E  E  E  E  E  E  E   
---------------------------|--------------------------|
--5--6---5--5--5--6--5--5--|--------6-----------6--5--|
--5--5---5--5--5--5--5--5--|--------5-----------5--5--|
--5--7---5--5--5--7--5--5--|--5--5--7--5--5--5--7--5--|
--5--5---5--5--5--5--5--5--|--5--5--5--5--5--5--5--5--|
---------------------------|--------------------------|


  E  E  E  E  E  E  E  E     E  E  E  E  E  E  E  E   
--------------------------|--------------------------|
--5--5--6--5--5--5--6--5--|--5--5--6--5--5--5--6--5--|
--5--5--5--5--5--5--5--5--|--5--5--5--5--5--5--5--5--|
--5--5--7--5--5--5--7--5--|--5--5--7--5--5--5--7--5--|
--5--5--5--5--5--5--5--5--|--5--5--5--5--5--5--5--5--|
--------------------------|--------------------------|


  E  E  E  E  E  E  E  E       E  E  E  E  E  E  E  E   
--------------------------||---------------------------|
--5--5--6--5--5--5--6--5--||---5--5--6-----------6-----|
--5--5--5--5--5--5--5--5--||*--5--5--5-----------5-----|
--5--5--7--5--5--5--7--5--||*--5--5--7--5--5--5--7--0--|
--5--5--5--5--5--5--5--5--||---5--5--5--5--5--5--5--0--|
--------------------------||---------------------------|


  E  E  E  E  E  E  E  E     E  E  E  E  E  E  E  E   
--------------------------|--------------------------|
--------1-----------1-----|--------6--5--5--5--6--5--|
--------0-----------0-----|--------5--5--5--5--5--5--|
--0--0--2--0--0--0--2--5--|--5--5--7--5--5--5--7--5--|
--0--0--0--0--0--0--0--5--|--5--5--5--5--5--5--5--5--|
--------------------------|--------------------------|


  E  E  E  E  E  E  E  E     E  E  E  E  E  E  E  E   
--------------------------|--------------------------|
--------6--5--5--5--6--5--|--5--5--6--5--5--5--6-----|
--------5--5--5--5--5--5--|--5--5--5--5--5--5--5-----|
--5--5--7--5--5--5--7--5--|--5--5--7--5--5--5--7--0--|
--5--5--5--5--5--5--5--5--|--5--5--5--5--5--5--5--0--|
--------------------------|--------------------------|


  E  E  E  E  E  E  E  E     E  E  Q    E  E  E  E     E  E  E  E  E  E  E  E   
--------------------------|-------------------------|--------------------------|
--------1-----1-----1--x--|--------6----5--5--6--5--|--5--5--5--------5--6--x--|
--------0-----0-----0--x--|--------5----5--5--5--5--|--5--5--5--------5--5--x--|
--0--0--2--0--2--0--2--x--|--5--5--7----5--5--7--5--|--5--5--5--5--5--5--7--x--|
--0--0--0--0--0--0--0--x--|--5--5--5----5--5--5--5--|--5--5--5--5--5--5--5--x--|
--------------------------|-------------------------|--------------------------|


  E  E  E  E  E  E  E  E     E  E  E  E  E  E  E  E   
--------------------------|--------------------------|
--------1-----------1-----|--------6--6--L--6--6-----|
--------0-----------0-----|--------5--5--L--5--5-----|
--0--0--2--0--0--0--2--0--|--0--0--7--7--L--7--7--5--|
--0--0--0--0--0--0--0--0--|--0--0--5--5--L--5--5--5--|
--------------------------|--------------------------|


  E  E  E  E  E  E  E  E     E  E  E  E  E  E  Q       E  E  E  E  E  E  E  E   
--------------------------|-------------------------|--------------------------|
--------6-----------6-----|--------6--5--L--5--6----|--------------------------|
--------5-----------5-----|--------5--5--L--5--5----|--------------------------|
--5--5--7--5--5--5--7--5--|--5--5--7--5--L--5--7----|--0--0--2--0--0--0--0--0--|
--5--5--5--5--5--5--5--5--|--5--5--5--5--L--5--5----|--0--0--2--0--0--0--0--0--|
--------------------------|-------------------------|--------------------------|


  E  E  E  E  E  E  E  E     E  E  E  E  E  E  E  E   
--------------------------|--------------------------|
--------------------------|--5--5--5--x--6--6--6--5--|
--------------------------|--5--5--5--x--5--5--5--5--|
--0--0--0--0--0--0--0--0--|--5--5--5--x--7--7--7--5--|
--0--0--0--0--0--0--0--0--|--5--5--5--x--5--5--5--5--|
--------------------------|--------------------------|


  E  E  E  E  E  E  E  E     Q    Q    Q    Q       E  E  E  E  E  E  Q     
--------------------------|----------------------|-------------------------|
--5--6--5--5--5--6--5--5--|--5---------5---------|--6--6-----5-----5--5----|
--5--5--5--5--5--5--5--5--|--5---------5---------|--5--5-----5-----5--5----|
--5--7--5--5--5--7--5--5--|--5---------5---------|--7--7-----5-----5--5----|
--5--5--5--5--5--5--5--5--|--5---------5---------|--5--5-----5-----5--5----|
--------------------------|----------------------|-------------------------|


  Q    Q    H           E  E  E  E  E  E  Q       Q    Q    Q    E  E   
---------------------|-------------------------|-----------------------|
---------------------|-------------------------|--5---------5-------5--|
---------------------|-------------------------|--5---------5-------5--|
--0----0----0--------|--0--0-----0--L--0--0----|--5---------5-------5--|
--0----0----0--------|--0--0-----0--L--0--0----|--5---------5-------5--|
---------------------|-------------------------|-----------------------|


  E  Q    E  E  E  Q       H        Q.     E     E  Q    E  Q    Q     
------------------------|---------------------|-----------------------|
--6--6----5-----6--5----|---------------------|-----------------------|
--5--5----5-----5--5----|---------------------|-----------------------|
--7--7----5-----7--5----|--0--------0------0--|--0--0----0--0----0----|
--5--5----5-----5--5----|--0--------0------0--|--0--0----0--0----0----|
------------------------|---------------------|-----------------------|


  E  E  E  E  E  E  E  E     E  E  E  E  E  E  E  E   
--------------------------|--------------------------|
--------6-----------6-----|--------1-----------1-----|
--------5-----------5-----|--------0-----------0-----|
--0--0--7--5--5--5--7--0--|--0--0--2--0--0--0--2--5--|
--0--0--5--5--5--5--5--0--|--0--0--0--0--0--0--0--5--|
--------------------------|--------------------------|


  E  E  E  E  E  E  E  E     E  E  E  E  E  E  E  E   
--------------------------|--------------------------|
--------6--5--5--5--6--5--|--------6--5--5--5--6--5--|
--------5--5--5--5--5--5--|--------5--5--5--5--5--5--|
--5--5--7--5--5--5--7--5--|--5--5--7--5--5--5--7--5--|
--5--5--5--5--5--5--5--5--|--5--5--5--5--5--5--5--5--|
--------------------------|--------------------------|


  E  E  E  E  E  E  E  E     E  E  E  E  E  E  E  E     E  E  Q    E  E  E  E   
--------------------------|--------------------------|-------------------------|
--5--5--6--5--5--5--6-----|--------1-----1-----1-----|--------6----5--5--6--6--|
--5--5--5--5--5--5--5-----|--------0-----0-----0--x--|--------5----5--5--5--5--|
--5--5--7--5--5--5--7--5--|--5--5--2--0--2--0--2--x--|--5--5--7----5--5--7--7--|
--5--5--5--5--5--5--5--5--|--5--5--0--0--0--0--0--x--|--5--5--5----5--5--5--5--|
--------------------------|--------------------------|-------------------------|


  E  E  E  E  E  E  E  E     E  E  E  E  E  E  E  E   
--------------------------|--------------------------|
--6--6--6--------5--6--x--|--------1-----------1-----|
--5--5--5--------5--5--x--|--------0-----------0-----|
--7--7--7--5--5--5--7--x--|--0--0--2--0--0--0--2--0--|
--5--5--5--5--5--5--5--x--|--0--0--0--0--0--0--0--0--|
--------------------------|--------------------------|


  E  E  E  E  E  E  E  E     E  E  E  E  E  E  E  E     E  E  E  E  E  E  Q     
--------------------------|--------------------------|-------------------------|
--------6--6--L--6--6-----|--------6-----------6-----|--------6--5--L--5--6----|
--------5--5--L--5--5-----|--------5-----------5-----|--------5--5--L--5--5----|
--0--0--7--7--L--7--7--5--|--5--5--7--5--5--5--7--5--|--5--5--7--5--L--5--7----|
--0--0--5--5--L--5--5--5--|--5--5--5--5--5--5--5--5--|--5--5--5--5--L--5--5----|
--------------------------|--------------------------|-------------------------|


  E  E  E  E  E  E  E  E     E  E  E  E  E  E  E  E   
--------------------------|--------------------------|
--------------------------|--------------------------|
--------------------------|--------------------------|
--0--0--2--0--0--0--0--0--|--0--0--0--0--0--0--0--0--|
--0--0--0--0--0--0--0--0--|--0--0--0--0--0--0--0--0--|
--------------------------|--------------------------|


  E  E  E  E  E  E  E  E     E  E  E  E  E  E  E  E   
--------------------------|--------------------------|
--5--5--5--x--6--6--6--5--|--5--6--5--5--5--6--5--5--|
--5--5--5--x--5--5--5--5--|--5--5--5--5--5--5--5--5--|
--5--5--5--x--7--7--7--5--|--5--7--5--5--5--7--5--5--|
--5--5--5--x--5--5--5--5--|--5--5--5--5--5--5--5--5--|
--------------------------|--------------------------|


  E  E  E  E  E  E  E  E     E  E  E  E  E  E  E  E   
--------------------------|--------------------------|
--------6-----------6--5--|--5--5--6--5--5--5--6--5--|
--------5-----------5--5--|--5--5--5--5--5--5--5--5--|
--5--5--7--5--5--5--7--5--|--5--5--7--5--5--5--7--5--|
--5--5--5--5--5--5--5--5--|--5--5--5--5--5--5--5--5--|
--------------------------|--------------------------|


  E  E  E  E  E  E  E  E     E  E  E  E  E  E  E  E     
--------------------------|---------------------------||
--5--5--6--5--5--5--6--5--|--5--5--6--5--5--5--6--5---||
--5--5--5--5--5--5--5--5--|--5--5--5--5--5--5--5--5--*||
--5--5--7--5--5--5--7--5--|--5--5--7--5--5--5--7--5--*||
--5--5--5--5--5--5--5--5--|--5--5--5--5--5--5--5--5---||
--------------------------|---------------------------||


  E  E  E  E  E  E  E  E     Q    Q    Q    Q       E  E  E  E  E  E  Q     
--------------------------|----------------------|-------------------------|
--5--6--5--5--5--6--5--5--|--5---------5---------|--6--6-----5-----5--5----|
--5--5--5--5--5--5--5--5--|--5---------5---------|--5--5-----5-----5--5----|
--5--7--5--5--5--7--5--5--|--5---------5---------|--7--7-----5-----5--5----|
--5--5--5--5--5--5--5--5--|--5---------5---------|--5--5-----5-----5--5----|
--------------------------|----------------------|-------------------------|


  Q    Q    H           E  E  E  E  E  E  Q       Q    Q    Q    E  E   
---------------------|-------------------------|-----------------------|
--5----5----5--------|--5--5-----5--L--5--5----|--5---------5-------5--|
--5----5----5--------|--5--5-----5--L--5--5----|--5---------5-------5--|
--5----5----5--------|--5--5-----5--L--5--5----|--5---------5-------5--|
--5----5----5--------|--5--5-----5--L--5--5----|--5---------5-------5--|
---------------------|-------------------------|-----------------------|


  E  Q    E  E  E  Q       H        Q.     E     E  Q    E  Q    Q     
------------------------|---------------------|-----------------------|
--6--6----5-----6--5----|---------------------|-----------------------|
--5--5----5-----5--5----|---------------------|-----------------------|
--7--7----5-----7--5----|--0--------0------0--|--0--0----0--0----0----|
--5--5----5-----5--5----|--0--------0------0--|--0--0----0--0----0----|
------------------------|---------------------|-----------------------|


  E  E  E  E  E  E  E  E     E  E  E  E  E  E  E  E   
--------------------------|--------------------------|
--------------------------|--------1-----------1-----|
--2--2--4--2--2--2--4-----|--------0-----------0-----|
--0--0--0--0--0--0--0--0--|--0--0--2--0--0--0--2--5--|
-----------------------0--|--0--0--0--0--0--0--0--5--|
--------------------------|--------------------------|


  E  E  E  E  E  E  E  E     E  E  E  E  E  E  E  E   
--------------------------|--------------------------|
--------6--5--5--5--6--5--|--------6--5--5--5--6--5--|
--------5--5--5--5--5--5--|--------5--5--5--5--5--5--|
--5--5--7--5--5--5--7--5--|--5--5--7--5--5--5--7--5--|
--5--5--5--5--5--5--5--5--|--5--5--5--5--5--5--5--5--|
--------------------------|--------------------------|


  E  E  E  E  E  E  E  E     E  E  E  E  E  E  E  E     E  E  Q    E  E  E  E   
--------------------------|--------------------------|-------------------------|
--5--5--6--5--5--5--6-----|--------1-----1-----1--x--|--------6----5--5--6--5--|
--5--5--5--5--5--5--5-----|--------0-----0-----0--x--|--------5----5--5--5--5--|
--5--5--7--5--5--5--7--0--|--0--0--2--0--2--0--2--x--|--5--5--7----5--5--7--5--|
--5--5--5--5--5--5--5--0--|--0--0--0--0--0--0--0--x--|--5--5--5----5--5--5--5--|
--------------------------|--------------------------|-------------------------|


  E  E  E  E  E  E  E  E     E  E  E  E  E  E  E  E   
--------------------------|--------------------------|
--5--5--5--------5--6--x--|--------1-----------1-----|
--5--5--5--------5--5--x--|--------0-----------0-----|
--5--5--5--5--5--5--7--x--|--0--0--2--0--0--0--2--0--|
--5--5--5--5--5--5--5--x--|--0--0--0--0--0--0--0--0--|
--------------------------|--------------------------|


  E  E  E  E  E  E  E  E     E  E  E  E  E  E  E  E     E  E  E  E  E  E  Q     
--------------------------|--------------------------|-------------------------|
--------6--6--L--6--6-----|--------6-----------6-----|--------6--5--L--5--6----|
--------5--5--L--5--5-----|--------5-----------5-----|--------5--5--L--5--5----|
--0--0--7--7--L--7--7--5--|--5--5--7--5--5--5--7--5--|--5--5--7--5--L--5--7----|
--0--0--5--5--L--5--5--5--|--5--5--5--5--5--5--5--5--|--5--5--5--5--L--5--5----|
--------------------------|--------------------------|-------------------------|


  E  E  E  E  E  E  E  E     E  E  E  E  E  E  E  E   
--------------------------|--------------------------|
--------------------------|--------------------------|
--------------------------|--------------------------|
--0--0--2--0--0--0--0--0--|--0--0--0--0--0--0--0--0--|
--0--0--0--0--0--0--0--0--|--0--0--0--0--0--0--0--0--|
--------------------------|--------------------------|


  E  E  E  E  E  E  E  E     E  E  E  E  E  E  E  E   
--------------------------|--------------------------|
--5--5--5--x--6--6--6--5--|--5--6--5--5--5--6--5--5--|
--5--5--5--x--5--5--5--5--|--5--5--5--5--5--5--5--5--|
--5--5--5--x--7--7--7--5--|--5--7--5--5--5--7--5--5--|
--5--5--5--x--5--5--5--5--|--5--5--5--5--5--5--5--5--|
--------------------------|--------------------------|


  E  E  E  E  E  E  E  E     E  E  E  E  E  E  E  E   
--------------------------|--------------------------|
--------6-----------6--5--|--5--5--6--5--5--5--6--5--|
--------5-----------5--5--|--5--5--5--5--5--5--5--5--|
--5--5--7--5--5--5--7--5--|--5--5--7--5--5--5--7--5--|
--5--5--5--5--5--5--5--5--|--5--5--5--5--5--5--5--5--|
--------------------------|--------------------------|


  E  E  E  E  E  E  E  E     E  E  E  E  E  E  E  E   
--------------------------|--------------------------|
--5--5--6--5--5--5--6--5--|--5--5--6--5--5--5--6--5--|
--5--5--5--5--5--5--5--5--|--5--5--5--5--5--5--5--5--|
--5--5--7--5--5--5--7--5--|--5--5--7--5--5--5--7--5--|
--5--5--5--5--5--5--5--5--|--5--5--5--5--5--5--5--5--|
--------------------------|--------------------------|


  E  E  E  E  E  E  E  E     E  E  E  E  E  E  E  E   
--------------------------|--------------------------|
--------6-----------6-----|--------1-----------1-----|
--------5-----------5-----|--------0-----------0-----|
--5--5--7--5--5--5--7--0--|--0--0--2--0--0--0--2--5--|
--5--5--5--5--5--5--5--0--|--0--0--0--0--0--0--0--5--|
--------------------------|--------------------------|


  E  E  E  E  E  E  E  E     E  E  E  E  E  E  E  E   
--------------------------|--------------------------|
--------6--5--5--5--6--5--|--------6--5--5--5--6--5--|
--------5--5--5--5--5--5--|--------5--5--5--5--5--5--|
--5--5--7--5--5--5--7--5--|--5--5--7--5--5--5--7--5--|
--5--5--5--5--5--5--5--5--|--5--5--5--5--5--5--5--5--|
--------------------------|--------------------------|


  E  E  E  E  E  E  E  E     E  E  E  E  E  E  E  E    
--------------------------|--------------------------||
--5--5--6--5--5--5--6-----|--------1-----1-----1--x--||
--5--5--5--5--5--5--5-----|--------0-----0-----0--x--||
--5--5--7--5--5--5--7--0--|--0--0--2--0--2--0--2--x--||
--5--5--5--5--5--5--5--0--|--0--0--0--0--0--0--0--x--||
--------------------------|--------------------------||










Standard Tuning



                                             D5                       
     W                   W                   E  E  E  E  E  E  E  E   
E||-------------------|-------------------|--------------------------|
B||-------------------|-------------------|--------------------------|
G||-------------------|-------------------|--2--2--2--2--2--2--2-----|
D||-------------------|-------------------|--0--0--0--0--0--0--0--2--|
A||-------------------|-------------------|-----------------------0--|
E||-------------------|-------------------|--------------------------|


  A5                   D5                             
  E  E  E  E  E  E  E  E     E  E  E  E  E  E  E  E   
--------------------------|--------------------------|
--------------------------|--------------------------|
-----------------------2--|--2--2--2--2--2--2--2--2--|
--2--2--2--2--2--2--4--0--|--0--0--0--0--0--0--0--0--|
--0--0--0--0--0--0--0-----|--------------------------|
--------------------------|--------------------------|


                                                  A5  
  E  E  E  E  E  E  E  E     E  E  E  E  E  E  E  E   
--------------------------|--------------------------|
--3-----------------------|--------------------------|
--2--2--2--2--2--2--2--2--|--2--2--2--2--2--2--2-----|
--0--0--0--0--0--0--0--0--|--0--0--0--0--0--0--0--2--|
--------------------------|-----------------------0--|
--------------------------|--------------------------|


                       D5                             
  E  E  E  E  E  E  E  E     E  E  E  E  E  E  E  E   
--------------------------|--------------------------|
--------------------------|--------------------------|
-----------------------2--|--2--2--2--2--2--2--2--2--|
--2--2--2--2--2--2--4--0--|--0--0--0--0--0--0--0--0--|
--0--0--0--0--0--0--0-----|--------------------------|
--------------------------|--------------------------|


                       A5                             
  E  E  E  E  E  E  E  E     E  E  E  E  E  E  E  E   
--------------------------|--------------------------|
--------------------------|--------------------------|
--2--2--2--2--2--2--2-----|--------------------------|
--0--0--0--0--0--0--0--2--|--2--2--2--2--2--2--4--2--|
-----------------------0--|--0--0--0--0--0--0--0--0--|
--------------------------|--------------------------|


                       D5                             
  E  E  E  E  E  E  E  E     E  E  E  E  E  E  E  E   
--------------------------|--------------------------|
--------------------------|--------------------------|
-----------------------2--|--2--2--2--2--2--2--2--2--|
--2--2--2--2--2--2--4--0--|--0--0--0--0--0--0--0--0--|
--0--0--0--0--0--0--0-----|--------------------------|
--------------------------|--------------------------|


                             A5                   A5  
  E  E  E  E  E  E  E  E     E  E  E  E  E  E  E  E   
--------------------------|--------------------------|
--------------------------|--------------------------|
--2--2--2--2--2--2--4--2--|-----------------------2--|
--0--0--0--0--0--0--0--0--|--2--2--2--2-----2--4--2--|
--------------------------|--0--0--0--0--4--------0--|
--------------------------|--------------------------|


                       D5                                                       
  E  E  E  E  E  E  E  E     E  E  E  E  E  E  E  E     E  Q    E  E  E  E  E   
--------------------------|--------------------------|-------------------------|
--------------------------|--------------------------|-------------------------|
--L--------------------2--|--2--2--2--2--4--4--4--4--|--2--4----2--2--2--2--2--|
--L--2--2--2--2--2--4--0--|--0--0--0--0--0--0--0--0--|--0--0----0--0--0--0--0--|
--L--0--0--0--0--0--0-----|--------------------------|-------------------------|
--------------------------|--------------------------|-------------------------|


   Q     Q    E   Q.          E    Q     E     Q    Q     
--------------------------|------------------------------|
--13b------------13b------|--13br--L----13br~--L---------|
--------------------------|------------------------------|
--------------------------|------------------------------|
--------------------------|------------------------------|
--------------------------|------------------------------|


  H        E  Q.         E    E    E  E  E  E  Q     
----------------------|-----------------------------|
--------------8b------|--8br--L--8g6----------------|
----------------------|---------------7--L----------|
----------------------|-----------------------------|
----------------------|-----------------------------|
----------------------|-----------------------------|


    D5                   A5                         D5  
    E  E  E  E  E  E  E  E     E  E  E  E  E  E  E  E   
|---------------------------|--------------------------|
|---------------------------|--------------------------|
|*--2--2--4--2--2--2--4-----|-----------------------2--|
|*--0--0--0--0--0--0--0--2--|--2--2--4--2--2--2--4--0--|
|------------------------0--|--0--0--0--0--0--0--0-----|
|---------------------------|--------------------------|


                                                                           A5  
  E  E  Q    E  E  E  E     E  E  Q    E  E  E  E     E  E  E  E  E  E  E  E   
-------------------------|-------------------------|--------------------------|
-------------------------|-------------------------|--------------------------|
--2--2--4----2--2--4--2--|--2--2--4----2--2--4--2--|--2--2--4--2--2--2--4-----|
--0--0--0----0--0--0--0--|--0--0--0----0--0--0--0--|--0--0--0--0--0--0--0--2--|
-------------------------|-------------------------|-----------------------0--|
-------------------------|-------------------------|--------------------------|


                       D5                             
  E  E  E  E  E  E  E  E     E  E  E  E  E  E  E  E   
--------------------------|--------------------------|
--------------------------|--------------------------|
-----------------------2--|--2--2--4--2--2--2--4--2--|
--2--2--4--2--2--2--4--0--|--0--0--0--0--0--0--0--0--|
--0--0--0--0--0--0--0-----|--------------------------|
--------------------------|--------------------------|


                       A5                                                   D5  
  E  E  E  E  E  E  E  E     Q    E  E  E  E  E  E     E  E  E  E  E  E  E  E   
--------------------------|-------------------------|--------------------------|
--------------------------|-------------------------|--------------------------|
--2--2--4--2--2--2--4-----|-------------------------|-----------------------2--|
--0--0--0--0--0--0--0--2--|--2----4--2--2--2--4--2--|--2--2--4--2--2--2--4--0--|
-----------------------0--|--0----0--0--0--0--0--0--|--0--0--0--0--0--0--0-----|
--------------------------|-------------------------|--------------------------|


                                                     A5                       
  Q    Q    E  E  Q       E  E  E  E  E  E  E  E     E  E  E  E  E  E  E  E   
-----------------------|--------------------------|--------------------------|
-----------------------|--------------------------|--------------------------|
--2----2----4--4--4----|--2--2--2--2--2--2--2--x--|--------------------------|
--0----0----0--0--0----|--0--0--0--0--0--0--0--x--|--2--2--4--2--2--2--4--2--|
-----------------------|--------------------------|--0--0--0--0--0--0--0--0--|
-----------------------|--------------------------|--------------------------|


                            D5                       D5                      
  E  E  E  E  E  E  Q       E  E  Q    E  E  Q       E  E  E  E  E  E  Q     
-------------------------|------------------------|-------------------------|
-------------------------|------------------------|-------------------------|
-------------------------|--2--2--2----4--4--4----|--2--2--4--2--2--2--2----|
--2--2--2--2--2--2--2----|--0--0--0----0--0--0----|--0--0--0--0--0--0--0----|
--0--0--0--0--0--0--0----|------------------------|-------------------------|
-------------------------|------------------------|-------------------------|


  E   E   Q     H           E    Q     E    H           Q     Q     H         
---------------10--------|------------10----L--------|--L----------10--------|
---------10--------------|---------------------------|-------10--------------|
--9b--L------------------|--9br--L-----9br--L--------|--L--------------------|
-------------------------|---------------------------|-----------------------|
-------------------------|---------------------------|-----------------------|
-------------------------|---------------------------|-----------------------|


   S   S  Q     E   H           Q    E   E   H         
-----------------------------|--------------10--------|
--13br-L-------13b--L--------|--------------10--------|
---------14------------------|-------9b--L------------|
-----------------------------|------------------------|
-----------------------------|------------------------|
-----------------------------|------------------------|


  E    Q     E  H           Q    Q    H           W                 
------------10--L--------|--L------------------|-------------------|
------------10--L--------|--L------------------|-------------------|
--9br--L-----7--L--------|--L------------------|-------------------|
-------------------------|---------------------|-------------------|
-------------------------|---------------------|-------------------|
-------------------------|---------------------|-------------------|


  D5                   A5                         D5                            
  E  E  E  E  E  E  E  E     E  E  E  E  E  E  E  E     E  E  Q    E  E  E  E   
--------------------------|--------------------------|-------------------------|
--------------------------|--------------------------|-------------------------|
--2--2--4--2--2--2--4-----|-----------------------2--|--2--2--4----2--2--4--2--|
--0--0--0--0--0--0--0--2--|--2--2--4--2--2--2--4--0--|--0--0--0----0--0--0--0--|
-----------------------0--|--0--0--0--0--0--0--0-----|-------------------------|
--------------------------|--------------------------|-------------------------|


                                                 A5                         D5  
  E  E  Q    E  E  E  E     E  E  E  E  E  E  E  E     E  E  E  E  E  E  E  E   
-------------------------|--------------------------|--------------------------|
-------------------------|--------------------------|--------------------------|
--2--2--4----2--2--4--2--|--2--2--4--2--2--2--4-----|-----------------------2--|
--0--0--0----0--0--0--0--|--0--0--0--0--0--0--0--2--|--2--2--4--2--2--2--4--0--|
-------------------------|-----------------------0--|--0--0--0--0--0--0--0-----|
-------------------------|--------------------------|--------------------------|


                                                  A5                            
  E  E  E  E  E  E  E  E     E  E  E  E  E  E  E  E     Q    E  E  E  E  E  E   
--------------------------|--------------------------|-------------------------|
--------------------------|--------------------------|-------------------------|
--2--2--4--2--2--2--4--2--|--2--2--4--2--2--2--4-----|-------------------------|
--0--0--0--0--0--0--0--0--|--0--0--0--0--0--0--0--2--|--2----4--2--2--2--4--2--|
--------------------------|-----------------------0--|--0----0--0--0--0--0--0--|
--------------------------|--------------------------|-------------------------|


                       D5                                                     
  E  E  E  E  E  E  E  E     Q    Q    E  E  Q       E  E  E  E  E  E  E  E   
--------------------------|-----------------------|--------------------------|
--------------------------|-----------------------|--------------------------|
-----------------------2--|--2----2----4--4--4----|--2--2--2--2--2--2--2--x--|
--2--2--4--2--2--2--4--0--|--0----0----0--0--0----|--0--0--0--0--0--0--0--x--|
--0--0--0--0--0--0--0-----|-----------------------|--------------------------|
--------------------------|-----------------------|--------------------------|


  A5                                                                          
  E  E  E  E  E  E  E  E     E  E  E  E  E  E  Q       E  E  Q    E  E  Q     
--------------------------|-------------------------|------------------------|
--------------------------|-------------------------|------------------------|
--------------------------|-------------------------|--2--2--2----4--4--4----|
--2--2--4--2--2--2--4--2--|--2--2--2--2--2--2--2----|--0--0--0----0--0--0----|
--0--0--0--0--0--0--0--0--|--0--0--0--0--0--0--0----|------------------------|
--------------------------|-------------------------|------------------------|


  E  E  E  E  E  E  Q        W                  
-------------------------|---------------------|
-------------------------|--13b----------------|
--2--2--4--2--2--2--2----|---------------------|
--0--0--0--0--0--0--0----|---------------------|
-------------------------|---------------------|
-------------------------|---------------------|


   |-----3-----|                                                      
   E    E      E  Q    H            E    Q       E   E   Q      E     
--------------------------------|------------------------------------|
--13br--L--13g10----------------|------------------------------------|
--------------------------------|--12b--12pb----12b--L--12b----12br--|
--------------------------------|------------------------------------|
--------------------------------|------------------------------------|
--------------------------------|------------------------------------|


                               D5                                            
  Q     E   E  E  E  Q         E  E  E  E  E  E  Q       H         H         
---------------------------||-------------------------|-----------10--------|
---------------------------||-------------------------|-----------10--------|
--L----10-----------------*||--2--2--4--2--2--2--2----|---------------------|
-----------12--L----------*||--0--0--0--0--0--0--0----|--0------------------|
---------------------------||-------------------------|---------------------|
---------------------------||-------------------------|---------------------|


   E    Q     E  H            Q      Q     Q     Q      
-------------10--L--------|---------10----10-----------|
-------------10--L--------|--13b----------------13b----|
--12b--12-----------------|----------------------------|
--------------------------|----------------------------|
--------------------------|----------------------------|
--------------------------|----------------------------|


                             D/A                                              
   E   Q     E  H            Q    Q    Q     Q        E    Q     E  H         
--10---------------------|--10--------------10----|-------------10--L--------|
------10----10--L--------|--10--------------10----|-------------10--L--------|
-------------------------|------------------------|--12br--L-----------------|
-------------------------|--------0----0----------|--------------0--L--------|
-------------------------|---0---------------0----|--------------------------|
-------------------------|------------------------|--------------------------|


  Q     Q     E   Q     E      E    Q     E  E   E   Q     
---------------------------|-------------10-----10--10----|
-------13b-------13b-------|--13br--L---------------------|
---------------------------|------------------------------|
---------------------------|------------------------------|
---------------------------|------------------------------|
---------------------------|------------------------------|


  D5                   A5                         D5                            
  E  E  E  E  E  E  E  E     E  E  E  E  E  E  E  E     E  E  Q    E  E  E  E   
--------------------------|--------------------------|-------------------------|
--------------------------|--------------------------|-------------------------|
--2--2--4--2--2--2--4-----|-----------------------2--|--2--2--2----2--2--4--2--|
--0--0--0--0--0--0--0--2--|--2--2--4--2--2--2--4--0--|--0--0--0----0--0--0--0--|
-----------------------0--|--0--0--0--0--0--0--0-----|-------------------------|
--------------------------|--------------------------|-------------------------|


                                                 A5                         D5  
  E  E  Q    E  E  E  E     E  E  E  E  E  E  E  E     E  E  E  E  E  E  E  E   
-------------------------|--------------------------|--------------------------|
-------------------------|--------------------------|--------------------------|
--2--2--4----2--2--4--2--|--2--2--4--2--2--2--4-----|-----------------------2--|
--0--0--0----0--0--0--0--|--0--0--0--0--0--0--0--2--|--2--2--4--2--2--2--4--0--|
-------------------------|-----------------------0--|--0--0--0--0--0--0--0-----|
-------------------------|--------------------------|--------------------------|


                                                  A5                            
  E  E  E  E  E  E  E  E     E  E  E  E  E  E  E  E     Q    E  E  E  E  E  E   
--------------------------|--------------------------|-------------------------|
--------------------------|--------------------------|-------------------------|
--2--2--4--2--2--2--4--2--|--2--2--4--2--2--2--4-----|-------------------------|
--0--0--0--0--0--0--0--0--|--0--0--0--0--0--0--0--2--|--2----4--2--2--2--4--2--|
--------------------------|-----------------------0--|--0----0--0--0--0--0--0--|
--------------------------|--------------------------|-------------------------|


                       D5                                                     
  E  E  E  E  E  E  E  E     Q    Q    E  E  Q       E  E  E  E  E  E  E  E   
--------------------------|-----------------------|--------------------------|
--------------------------|-----------------------|--------------------------|
-----------------------2--|--2----2----4--4--4----|--2--2--2--2--2--2--2-----|
--2--2--4--2--2--2--4--0--|--0----0----0--0--0----|--0--0--0--0--0--0--0--x--|
--0--0--0--0--0--0--0-----|-----------------------|-----------------------x--|
--------------------------|-----------------------|--------------------------|


  A5                                                   D5                     
  E  E  E  E  E  E  E  E     E  E  E  E  E  E  Q       E  E  Q    E  E  Q     
--------------------------|-------------------------|------------------------|
--------------------------|-------------------------|------------------------|
--------------------------|-------------------------|--2--2--2----4--4--4----|
--2--2--4--2--2--2--4--2--|--2--2--2--2--2--2--2----|--0--0--0----0--0--0----|
--0--0--0--0--0--0--0--0--|--0--0--0--0--0--0--0----|------------------------|
--------------------------|-------------------------|------------------------|


  E  E  E  E  E  E  Q       E  E  E   E  E  E  E  E   
-------------------------|---------------------------|
-------------------------|---------------------------|
--2--2--4--2--2--2--2----|--2------------2--2--4--2--|
--0--0--0--0--0--0--0----|--0--0--3S--4--0--0--0--0--|
-------------------------|---------------------------|
-------------------------|---------------------------|


  E  E  E   E  E  E  E  E     E  E  E   E  E  E  E  E   
---------------------------|---------------------------|
---------------------------|---------------------------|
--2--2---------2--2--4--2--|--2------------2--2--4--2--|
--0--0--3S--4--0--0--0--0--|--0--0--3S--4--0--0--0--0--|
---------------------------|---------------------------|
---------------------------|---------------------------|


                                                   A5  
  E  E  E   E  E  E  E  E     E  E  E  E  E  E  E  E   
---------------------------|--------------------------|
---------------------------|--------------------------|
--2--2---------2--2--4--2--|--2--2--4--2--2--2--4-----|
--0--0--3S--4--0--0--0--0--|--0--0--0--0--0--0--0--2--|
---------------------------|-----------------------0--|
---------------------------|--------------------------|


                       D5                                                      
  E  E  E  E  E  E  E  E     E  E  Q    E  E  E  E     E  E  Q    E  E  E  E   
--------------------------|-------------------------|-------------------------|
--------------------------|-------------------------|-------------------------|
-----------------------2--|--2--2--4----2--2--4--2--|--2--2--4----2--2--4--2--|
--2--2--4--2--2--2--4--0--|--0--0--0----0--0--0--0--|--0--0--0----0--0--0--0--|
--0--0--0--0--0--0--0-----|-------------------------|-------------------------|
--------------------------|-------------------------|-------------------------|


                       A5                              
  E  E  E  E  E  E  E  E     E  E  E  E  E  E  E  E    
--------------------------|--------------------------||
--------------------------|--------------------------||
--2--2--4--2--2--2--4-----|-----------------------2--||
--0--0--0--0--0--0--0--2--|--2--2--4--2--2--2--4--0--||
-----------------------0--|--0--0--0--0--0--0--0-----||
--------------------------|--------------------------||




Duration Legend
---------------
W - whole
H - half
Q - quarter
E - 8th
S - 16th
T - 32nd
X - 64th
. - note dotted
|-n-|  - n-tuplets


Tablature Legend
----------------
L - tied note
x - dead note
g - grace note
(n) - ghost note
> - accentuded note
NH - natural harmonic
AH - artificial harmonic
TH - tapped harmonic
SH - semi harmonic
PH - pitch harmonic
h - hammer on
p - pull off
b - bend
br - bendRelease
pb - preBend
pbr - preBendRelease
brb - bendReleaseBend
\n/ - tremolo bar dip
\n - tremolo bar dive
-/n - tremolo bar Release up
/n\ - tremolo bar inverted dip
/n - tremolo bar return
-\n - tremolo bar Release down
S - shift slide
s - legato slide
/ -  slide into from below or out of upwards
\ -  slide into from above or out of downwards
~ - vibrato
W - wide vibrato
tr - trill
TP - tremolo picking
T - tapping
S - slap
P - pop
< - fade in
^ - brush up
v - brush down





Comments


Popular Rolling Stones tabs & chords
Citadel Chords
Down Home Girl 1 Chords
Grown Up Wrong 1 Chords
Stray Cat Blues 1 Chords
Dead Flowers 1 Tabs
Monkey Man 2 Tabs
Sweethearts Together Tabs
Sympathy For The Devil Tabs
Hang Fire Ukulele
Happy Ukulele


Song lyrics



↑ Back to top | Tablatures and chords are parodies/interpretations of the original songs. You may use it for private study, scholarship, research or language learning purposes only
© 2014 AZChords.com Contact us | Privacy policy | DMCA | Add/correct tabs | Request tabs | Top 50 tabs