» » »

Paint It Black Bass tabs (ver.3)

Artists:  A B C D E F G H I J K L M N O P Q R S T U V W X Y Z # 

Paint It Black Bass tabs (ver.3)

Rolling Stones
Rating:
0/5 (0 votes)

Hard to play? Try these video lessons and learn fast.
                Well this isn't really the orginal bass, but it's the melody in bass cleff
And it's my first tab ^^

[Intro]
G|------------------------| 
D|------0-----------------|
A|-0-2-3--3-2-0-0--0-2-0--|
E|---------------4------4-|

[I see a red door...]
G|------------------------|x2 
D|------0-----------------|
A|-0-2-3--3-2-0-0--0-2-0--|
E|---------------4------4-|

[I see the girls walk by...]
G|-2-0-0-----------------|x2
D|------0-0-1-1-2-2-0--2-|
A|-------------------3---|
E|-----------------------|


That is pretty much the song, I know it's not 100% right
            
Hard to play? Try these video lessons and learn fast. | Correct




comments powered by Disqus
↑ Back to top | Tablatures and chords are parodies/interpretations of the original songs. You may use it for private study, scholarship, research or language learning purposes only