» » »

Paint It Black Bass tabs (ver.1)

Artists:  A B C D E F G H I J K L M N O P Q R S T U V W X Y Z # 

Paint It Black Bass tabs (ver.1)

Rolling Stones
Rating:
0/5 (0 votes)

Hard to play? Try these video lessons and learn fast.
                Band name: The Rolling Stones
Song name: Paint It Black
Bassist: Bill Wyman
Submitter: Andy Roberts

The verse and chorus are repeated simultaneously throughout the song


Verse (00:16)
G|----------------|----------------|----------------|----------------|
D|----------------|----------------|----------------|----------------|
A|7-7-7-7-7-7-7-7-|7-7-7-7-7-7-7-7-|2-2-2-2-2-2-2-2-|5-5-5-5-6-6-6-6-|
E|----------------|----------------|----------------|----------------|

G|----------------|----------------|----------------|----------------|
D|----------------|----------------|----------------|----------------|
A|7-7-7-7-7-7-7-7-|7-7-7-7-7-7-7-7-|2-2-2-2-2-2-2-2-|5-5-5-5-6-6-6-6-|
E|----------------|----------------|----------------|----------------|

Chorus (00:29)
G|----------------|----------------|----------------|----------------|
D|----------------|----------------|----------------|----------------|
A|7-7-7-7-5-5-5-5-|----------------|2-2-2-2-2-2-2-2-|2-2-2-2-2-2-2-2-|
E|----------------|3-3-3-5-5-5-5-5-|----------------|----------------|

G|----------------|----------------|----------------|----------------|
D|----------------|----------------|----------------|----------------|
A|7-7-7-7-5-5-5-5-|----------------|0-0-0-0-0-0-0-0-|2-2-2-2-2-2-2-2-|
E|----------------|3-3-3-5-5-5-5-5-|----------------|----------------|

Verse 2 (00:41)

Chorus 2 (00:52) 

Verse 3 (01:05)

Chorus 3 (01:17)

Break (01:29)
(no bass for this)

Chorus 4 (01:41)

Verse 5 (01:54)

Chorus 5 (02:05)

Outro (02:18)
            
Hard to play? Try these video lessons and learn fast. | Correct




comments powered by Disqus
↑ Back to top | Tablatures and chords are parodies/interpretations of the original songs. You may use it for private study, scholarship, research or language learning purposes only