>
 >
Oh No Not You Again

Oh No Not You Again Guitar Tabs

Rolling Stones - Oh No Not You Again chords, tabs, tablatures, lyrics

Guitar lessons | Add/correct | Request | Top 50 tabs Artists:  A B C D E F G H I J K L M N O P Q R S T U V W X Y Z 0-9

Oh No Not You Again Guitar Tabs – Rolling Stones

CD, Sheet music, Poster

Do you like Oh No Not You Again? Share with your friends now
Bass TabsTabs
The Rolling Stones
Guitarists: Keith Richards, Ronnie Wood, Mick Jagger
Tuning: Standard


~Guitar 1~

Intro

-----2--2-----------------2--2-----------------2--2------------------2--2---------------------------|
-2-2-3--3----2-2--2-2-2-2-3--3----2-2--2-2-2-2-3--3----2-2--2-2-2-2--3--3---2-2---------------------|
-2-2-2--2----2-2--2-2-2-2-2--2----2-2--2-2-2-2-2--2----2-2--2-2-2-2--2--2---2-2---------------------|
-2-2-0--0----2-2--2-2-2-2-0--0----2-2--2-2-2-2-0--0----2-2--2-2-2-2--0--0---2-2---------------------|
-0-0------0--0-0--0-0-0-0------0--0-0--0-0-0-0------0--0-0--0-0-0-0-------0-0-0--7--7--7--7--7------|
---------------------------------------------------------------------------------5--5--5--5--5------|

~ A and D Chords in intro and outro can alternatively be played using these shapes (However, play in same pattern as above):

----------------------|
-5---------7----------|
-6---------7----------|
-7---------7----------|
----------------------|
----------------------|
 A         D

Verses

-------------------------------------0-0--------------------------|
-------------------------------------0-0--------------------------|
-------------------------------------1-1--------------------------|
-------------------------------------2-2--------------------------|
-7-7--7-7-7----5-5--5----5-5----5-5--2-2--5-5--5-5---7-7--7-7-----|
-5-5--5-5-5-0--3-3--3-0--3-3-0--2-2--0-0--3-3--3-3---5-5--5-5-0---|


Chorus's

-----------------------------------------------------------------------------------------------------------|
-----------------------------------------------------------------------------------------------------------|
-----------------------------------------------------------------------------------------------------------|
-7-7-7-7-7-7-7-7-7-7-7-7-7-7-7-7---------------------------------------------------------------------------|
-5-5-5-5-5-5-5-5-5-5-5-5-5-5-5-5--7-7-7-7-7-7-7-7-7-7-7-7-7-7-7-7--5-5-5-5-5-5-5-5-5-5-5-5-5-5-5-5---------|
----------------------------------5-5-5-5-5-5-5-5-5-5-5-5-5-5-5-5--3-3-3-3-3-3-3-3-3-3-3-3-3-3-3-3---------|

------------------------------------------|
------------------------------------------|
------------------------------------------|
--7-7-7-7-7-7-7-7-------------------------|
--5-5-5-5-5-5-5-5--7-7-7-7-7-7-7-7--------|
-------------------5-5-5-5-5-5-5-5--------|

Outro

-----2--2-----------------2--2-----------------2--2------------------2--2----------------------------|
-2-2-3--3----2-2--2-2-2-2-3--3----2-2--2-2-2-2-3--3----2-2--2-2-2-2--3--3---2-2--2-------------------|
-2-2-2--2----2-2--2-2-2-2-2--2----2-2--2-2-2-2-2--2----2-2--2-2-2-2--2--2---2-2--2-------------------|
-2-2-0--0----2-2--2-2-2-2-0--0----2-2--2-2-2-2-0--0----2-2--2-2-2-2--0--0---2-2--2-------------------|
-0-0------0--0-0--0-0-0-0------0--0-0--0-0-0-0------0--0-0--0-0-0-0-------0-0-0--0-------------------|
-----------------------------------------------------------------------------------------------------|


~Guitar 2~


Play Chorus's before solo the same as Guitar 1 except go to F#/D instead of D5 like so:
-------------------------------------------|
-------------------------------------------|
-------------------------------------------|
-------------------------------------------|
--5--5-5-5-5-5--7-7-7-7-7-7----------------|
--2--2-2-2-2-2--5-5-5-5-5-5----------------|


Chorus's after solo

--------------------------------------------------------------------------|
--------------------------------------------------------------------------|
--------------------------------------------------------------------------|
-7-7-7-7-7-7-7-7----------------------------------------------------------|
-5-5-5-5-5-5-5-5--7-7-7-7-7-7-7-7----4-5-5-5-5-5-5---5-5-5---5-7----------|
------------------5-5-5-5-5-5-5-5--0-2-3-3-3-3-3-3-0-2-2-2-0-2-5----------|

Fill (Before 3rd verse and Outro Solo)

-------------------|
-------------------|
-4br--2------------|
-------------------|
-------------------|
-------------------|

~Guitar 3~

Intro
--------------------7/9---------------5---------------|
------------------------------------5-----------------|
--------------------7/9----------7b------7--5---------|
-------------------------------------------------7----|
-7-7---7-7---7-----------7-7--------------------------|
-5-5---5-5---5-----------5-5--------------------------|


Verse 1

----------------------------------5-----------------------------7\5------------------------------5------------|
-x--x--x--2-2-------------------5---------------x--x--2-2-------------------------------------5---------------|
-x--x--x--2-2---------------7b------7--5--------x--x--2-2--5/7-----------------------------7b------7--5-------|
-x--x--x--2-2-----------------------------7-----x--x--2-2---------------/4~--4\2~--2/5~-----------------7-----|
------------------0--0----------------------------------------------------------------------------------------|
--------------------------------------------------------------------------------------------------------------|


Chorus 1

---------------------------------------------------------------------------------------------------|
----------------------------------------------------------------------------5-----5---5-----5------|
-9br---------------9b--7-9----7-------9brb--9br------------9br--------------6h7---6---6h7---6------|
-----9br--7~-----7----------9-------------------9br--7~-------9br--7~------------------------------|
---------------------------------------------------------------------------------------------------|
---------------------------------------------------------------------------------------------------|

------5----------------|
----5------------------|
-7b-------7--5---------|
----------------7------|
-----------------------|
-----------------------|


Verse 2

------------------------------10---------10--------10------------------3-------------------|
-x--x--x--2-2--------------10---------10--------10--------x--x--2-2------------------------|
-x--x--x--2-2----------12b--------12b-------12b-----------x--x--2-2----2b------------------|
-x--x--x--2-2---------------------------------------------x--x--2-2------------------------|
-------------------------------------------------------------------------------------------|
-------------------------------------------------------------------------------------------|

-------0----------------------------------------------|
-----3---3----------0-----------3p2--3p2--3h5--3------|
---2------------2-2-------------2----2----------------|
-0------------0---------------------------------------|
------------0-----------------------------------------|
------------------------------------------------------|


Chorus 2

---------------------------------------------------------------------------------------------|
-----------------------------------------------------------------------5----5--5---5---------|
-9br-----------------7-9b-7--9----7~----9br-7------------9br-----------6h7--6--6h7-6---------|
------9br--7~------------------9--------------9--7-9---------9br--7~-------------------------|
---------------------------------------------------------------------------------------------|
---------------------------------------------------------------------------------------------|

----------------------------------------|
----------------------------------------|
-9b-----7---7--9br----------------------|
-----9----9-----------------------------|
----------------------------------------|
----------------------------------------|


Solo

-/10--10-10--------13\12--10------------------------------------------------------------------|
-/10--10-10--12b---13\12--10------------12-10--12br-----12br----------10-10----10-10----------|
-------------12b--------------12br--10--12-10--12br-10--12br-10-12----10-10----10-10-----10---|
-------------------------------------------------------------------12-------12-------12-------|
----------------------------------------------------------------------------------------------|
----------------------------------------------------------------------------------------------|


--------10------------------------------------------------------------10----------------------|
-----10-----12br---------------10--10--10----10----10----12b~-------10------------------------|
-12b--------12br--10--12-------10--10--10----10----10----12b~---12b---------------------------|
-------------------------12---------------12----12--------------------------------------------|
----------------------------------------------------------------------------------------------|
----------------------------------------------------------------------------------------------|


Verse 3

------5-----------------5-5-----5--------------------0--------------------5--5--5---|
----5-------------------5-5--7--5----5--5----------3---3----------0-------5--5--5---|
-7b-----7-5------------------7-------5--5--------2------------2-2-------------------|
------------7-5-7-7-----------------------7----0------------0-----------------------|
----------------------------------------------------------0-------------------------|
------------------------------------------------------------------------------------|


Final Chorus's

----------------8br------------------------------------------7-----------------------------|
--------------------8br--6---6--8b------7---7---7-7-------10---10----------5---5--5---5----|
-9br-----------------------7--------------9--9---9-9---9b---------9-9br----6h7-6--6h7-6----|
-----9br--7--------------------------------------------------------------------------------|
-------------------------------------------------------------------------------------------|
-------------------------------------------------------------------------------------------|

-------------------------------------------------------------------------------------------|
-12-12b------------------12br--12br--12br--12br--12b---------------------------------------|
-12-12b--10--12----10----12br--12br--12br--12br--12b-12-10---------------------------------|
----------------12----12-----------------------------------12-10---------------------------|
-----------------------------------------------------------------12------------------------|
-------------------------------------------------------------------------------------------|


Outro Solo

-5-5-------5-------5------5--------------------------------------------------------------------5--5---5-----|
-5-5-----5-------5------5----------------------------------------------------------------------5--5---5-----|
------7b------7b-----7b------7br5---5-7--5b---5-------------------------------------------------------------|
----------------------------------7---------7--------------5--5---5--5---5-5---5--5---5---7-----------------|
-------------------------------------------------7-5------------7------7-----7---7--7---7-------------------|
-----------------------------------------------------8------------------------------------------------------|





Comments


Popular Rolling Stones tabs & chords
Beast Of Burden Bass Tabs
Brown Sugar 4 Chords
Carol 1 Chords
Dont Cha Bother Me Chords
Play With Fire 2 Chords
Tell Me 1 Chords
Sad Sad Sad Tabs
She Was Hot Tabs
Sweet Black Angel Tabs
Sympathy For The Devil Tabs


Song lyrics



↑ Back to top | Tablatures and chords are parodies/interpretations of the original songs. You may use it for private study, scholarship, research or language learning purposes only
© 2014 AZChords.com Contact us | Privacy policy | DMCA | Add/correct tabs | Request tabs | Top 50 tabs