» » »

Rolling Stones, Midnight Rambler Tabs (ver.5)

Artists:  A B C D E F G H I J K L M N O P Q R S T U V W X Y Z # 

Midnight Rambler Tabs (ver.5)

Rolling Stones Tabs
Rating:
0/5 (0 votes)
Midnight Rambler lessons Tabs too difficult? Try these video lessons and learn fast
                (Live)




Tuning: Standard          From Get Your Ya-Yas Out

e|---------------------------------------------------------------------------|
B|---------------------------------------------------------------------------|
G|--------------------------4---6---7---6------------------------------------|
D|---4-----6----7-----6-----4---6---7---6------------------------------------|
A|---4-----6----7-----6----2---4---5---4-------------------------------------|
E|-2-----4-----5----4--------------------------------------------------------|

   Talking 'bout the midnight rambler          and everybody got to go
e|---------------------------------------------------------------------------|
B|---------------------------------------------------------------------------|
G|-----------------------------4--6--7--6-------------------------4--6--7--6-|
D|--4------6----------7---6----4--6--7--6-------4----6----7---6---4--6--7--6-|
A|--4------6----------7---6---2--4--5--4--------4----6----7---6--2--4--5--4--|
E|-2------4----------5---4---------------------2----4----5---4---------------|

   Talking 'bout the midnight rambler          the one you never seen before
e|---------------------------------------------------------------------------|
B|---------------------------------------------------------------------------|
G|-----------------------------4--6--7--6-------------------------4--6--7--6-|
D|--4------6----------7---6----4--6--7--6-------4----6----7---6---4--6--7--6-|
A|--4------6----------7---6---2--4--5--4--------4----6----7---6--2--4--5--4--|
E|-2------4----------5---4---------------------2----4----5---4---------------|

   I'm sighing down the wind so sadly      Listen and you'll hear me moan
e|---------------------------------------------------------------------------|
B|---------------------------------------------------------------------------|
G|-----9------7---------4--------4----------9---7------------4---------4-----|
D|-----9------7---------4----7---4----------9---7------------4----7----4-----|
A|----7------5---------2-----7--2----------7---5------------2-----7---2------|
E|--------------------------5------------------------------------5-----------|
   Well I'm talking 'bout the midnight rambler    and everybody got to go
e|---------------------------------------------------------------------------|
B|---------------------------------------------------------------------------|
G|-----9------7---------------4--------4--------------9---7-----4---------4--|
D|-----9------7---------------4----7---4--------------9---7-----4----7----4--|
A|----7------5---------------2-----7--2--------------7---5-----2-----7---2---|
E|--------------------------------5---------------------------------5--------|
            

comments powered by Disqus
↑ Back to top | Rolling Stones Tabs for Midnight Rambler. Lyrics for acoustic guitar and electric guitar. Tablatures and chords are parodies/interpretations of the original songs. You may use it for private study, scholarship, research or language learning purposes only