» » »

Midnight Rambler Tabs (ver.4)

Artists:  A B C D E F G H I J K L M N O P Q R S T U V W X Y Z # 

Midnight Rambler Tabs (ver.4)

Rolling Stones
Rating:
0/5 (0 votes)

Hard to play? Try these video lessons and learn fast.
                (Intro)
Midnight Rambler - The Rolling Stones               



Tuning: Standard

Blues In B(I think only B and E chords are played, though).
Great for novice slide players.

Rhythm Guitar:

  Upstrokes ^ ^

e|----------7-5----------------------------------------|
B|----------7-5----------------------------------------|
G|-----------------------------------------------------|
D|-4-4-6-4------------------------Repeat 7 more times--|
A|-2-2-2-2-------2-2-4-4-2-2-4-4-----------------------|
E|---------------0-0-0-0-0-0-0-0-----------------------|

   ^ ^  ^ ^

e|-7-5--5-2--------------------------------------------|
B|-7-5--5-3--------------------------------------------|
G|-----------------------------------------------------|
D|----------------------------Repeat 3 more times------|
A|-----------2-2-4-4-2-2-4-4---------------------------|
E|-----------0-0-0-0-0-0-0-0---------------------------|

Slide Guitar: (around 0:57)

e|-----------------------------------------------------|
B|-----------------------------------------------------|
G|-----------4/7\4-------------------------------------|
D|-7/9--9\7---------------Repeat-----------------------|
A|-----------------------------------------------------|
E|-----------------------------------------------------|

Keith plays a lot of B notes on the slide during the 'Jam'
part of the song. Pretty easy to play both parts with one guitar.

| /  slide up
| \  slide down
| h  hammer-on
| p  pull-off
| ~  vibrato
| +  harmonic
| x  Mute note
            
Hard to play? Try these video lessons and learn fast. | Correct




comments powered by Disqus
↑ Back to top | Tablatures and chords are parodies/interpretations of the original songs. You may use it for private study, scholarship, research or language learning purposes only