» » »

Love In Vain Tabs (ver.3)

Artists:  A B C D E F G H I J K L M N O P Q R S T U V W X Y Z # 

Love In Vain Tabs (ver.3)

Rolling Stones
Rating:
0/5 (0 votes)

Hard to play? Try these video lessons and learn fast.
                (Intro)
This is another version of Love in vain (Stripped)
Sounds cooler with an acoustic than the other one hehe:P
Just listen to the song and you'll be fine following these notes, i know i am, but if 
theres any mistake please tell me:)

E-----------------------------------------0---------------------------------|
B----------0-------------0--------------------------------------------------|
G---------0---0---------0---0---------2/4---4/2/0---------------0/2/0------0|
D-------0-------0-----0-----------------------------2/0-----0/2-------0/2---|
A--------------------------------------------------------3------------------|
E---0/3------------3------------3-2-0---------------------------------------|

E-----------3---3-----1---1x-----------------0------0-----------------------|
B-----------0---------0---0x-----------1---1------1---1---------------------|
G--------0--0---------0---0x---------2---2------2-------2-------------------|
D------0----0---------0---0x-------0----------------------------------------|
A---------------------2---2x------------------------------------------------|
E---3-----------------3---3x-----2------------------------------------------|

E---------------------------------------------------------------------------|
B--------------0-------------0--------------0------------0------------------|
G------------0---0---------0---0----------0---0--------0---0----------------|
D----------0-------0-----0-------0------0-------0----0-------0--------------|
A---------------------------------------------------------------------------|
E-----2/3-------------3-------------2/3------------3------------------------|

E----1-----1-----1------1-1-1-1---0----1------------------------------------|
B------3-----3-----3------------3------3------------------1-----------1-----|
G--------0-----0-----0-----------------0----------------0---0-------0-------|
D--------------------------------------0--------------2-------2---2---------|
A--------------------------------------2--------0-2-3-----------3-----------|
E--------------------------------------3------3-----------------------------|

E-------------2------------0----------------------------0-------------------|
B-----------3---3--------3---3-------------0----------3---3-----------------|
G---------2-------2----2-------2---------0---0------2-------2---------------|
D--------------------------------------0-------0----------------------------|
A---3-2---------------------------------------------------------------------|
E-------2------------2-------------2/3------------2-------------------------|

E---------------------------------------------------2------------2----------|
B-------------0/1---0/1---0/1---0-----------------3---3--------3------------|
G--------0----0-----0-----0-----0---------------2-------2----2--------------|
D------0------0/2---0/2---0/2---0-------------0-----------------------------|
A-----------------------------------------0-2-------------------------------|
E----3------------------------------3-3-3------------------3----------------|

E----------------0----------------------------------------------------------|
B---------------------------------------------------------------------------|
G------------2/4---4/2/0---------------0/2/0-------0------------------------|
D-------------------------2/0-----0/2---------0/2---------------------------|
A------------------------------3--------------------------------------------|
E----3-2-0------------------------------------------------------------------|

After that last part it pretty much goes on the same way as before, only a few things 
change, but i cant hear them properly in the song as so many instruments are joining.
            
Hard to play? Try these video lessons and learn fast. | Correct




comments powered by Disqus
↑ Back to top | Tablatures and chords are parodies/interpretations of the original songs. You may use it for private study, scholarship, research or language learning purposes only