» » »

Rolling Stones, Love In Vain Bass tabs (ver.1)

Artists:  A B C D E F G H I J K L M N O P Q R S T U V W X Y Z # 

Love In Vain Bass tabs (ver.1)

Rolling Stones Tabs
 Rating:
4/5 (4 votes)
Love In Vain lessons Tabs too difficult? Try these video lessons and learn fast
                Standard tuning

Bass comes in at 1:57

|--------------3--2--1------------|-------------3--2--1------------|
|---------------------------------|--------------------------------|
|--1------------------------------|--1-----------------------------|
|---------------------------------|--------------------------------|

|--------------3--2--1------------|-------------3--2--1------------|
|---------------------------------|--------------------------------|
|--1------------------------------|--1-----------------------------|
|---------------------------------|--------------------------------|

|--------------3-----0------------|--------------5-----2-----------|
|--1--------------1---------------|--3--------------3--------------|
|---------------------------------|--------------------------------|
|---------------------------------|--------------------------------|

|-------------3------------0---2--|--3-----------------------------|
|---------------------------------|-----------------------------0--|
|--1---------------0--------------|--------------------------1-----|
|---------------------------------|--------------------------------|

|---------------------------------|--------------------------------|
|--3---------------------------3--|--5-----------------------------|
|---------------------------------|-----------------3--------------|
|---------------------------------|--------------------------------|

|----------3----3--1-----------3--|--------------------------------|
|---------------------------------|--------------------------------|
|--1------------------------------|--------------------------------|
|---------------------------------|--1-----------------------------|

When the train left the station..
|--------------3--2--1------------|-------------3--2--1------------|
|---------------------------------|--------------------------------|
|--1------------------------------|--1-----------------------------|
|---------------------------------|--------------------------------|

|--------------3--2--1------------|-------3-------------3----3-----|
|---------------------------------|--------------------------------|
|--1------------------------------|--1-------------1-------------1-|
|---------------------------------|--------------------------------|

|------------3-----0--------------|------------5-----2----------2--|
|--1------------1-----------------|--3------------3---------3------|
|---------------------------------|--------------------------------|
|---------------------------------|--------------------------------|

|-------------------2----------2--|--3-----------3--3--------------|
|------------3---5---------5------|------------------------------2-|
|--1------------------------------|--------------------------5-----|
|---------------------------------|--------------------------------|

The blue light was my baby..
|------------------------------2--|--------------------------------|
|--3-----------------------3------|--5-----------------------------|
|---------------------------------|-----------------3--------------|
|---------------------------------|--------------------------------|

|----------3----3--1-----------3--|--------------------------------|
|---------------------------------|--------------------------------|
|--1------------------------------|--------------------------------|
|---------------------------------|--1-----------------------------|

All my love's in vain..
|---------3----2--1----0----------|--------3----2--1----0----------|
|-------------------------4----3--|------------------------4----3--|
|--1------------------------------|--1-----------------------------|
|---------------------------------|--------------------------------|

|---------3----2--1----0----------|--------3----2--1----0----------|
|-------------------------4----3--|------------------------4----3--|
|--1------------------------------|--1-----------------------------|
|---------------------------------|--------------------------------|

|---------8----7--6----5--4----3--|-----------2------5-------------|
|---------------------------------|--------3-----3-----------3-----|
|--6------------------------------|--------------------------------|
|---------------------------------|--1-----------------------------|

|-------------------2---------2---|---------3----2--1----0---------|
|-------------3--5--------5-------|-------------------------4---3--|
|--1------------------------------|--1-----------------------------|
|---------------------------------|--------------------------------|


|---------------------------2-----|--------------------------------|
|--3------------3--------3-----3--|--5-----------------------------|
|---------------------------------|-----------------3--------------|
|---------------------------------|--------------------------------|

|----------3----3--1-----------3--|--------------------------------|
|---------------------------------|--------------------------------|
|--1------------------------------|--------------------------------|
|---------------------------------|--1-----------------------------|
            
Submit corrections

comments powered by Disqus
↑ Back to top | Rolling Stones Bass for Love In Vain. Lyrics for acoustic guitar and electric guitar. Tablatures and chords are parodies/interpretations of the original songs. You may use it for private study, scholarship, research or language learning purposes only