» » »

Rolling Stones, Long Long While Bass tabs (ver.1)

Artists:  A B C D E F G H I J K L M N O P Q R S T U V W X Y Z # 

Long Long While Bass tabs (ver.1)

Rolling Stones Tabs
Rating:
0/5 (0 votes)
Long Long While lessons Tabs too difficult? Try these video lessons and learn fast
                Long Long While
The Rolling Stones
Written by Mick Jagger and Keith Richards; released as the B-side to "Paint 
It Black".

6/8 time

Verse:
G|----------- -----------|----------- -----------|----------- -----------|
D|-----------------------|-----------------------|----------------0---2--|
A|3----------------------|-----------------------|-----------------------|
E|-----------------------|-----------------------|-----------------------|
  Ba    -     by,         ba    -     by,         been a  long,   long


G|----------- -----------|----------- -----------|----------- -----------|
D|3----------------------|----------------2---0--|-----------------------|
A|-----------------------|-----------------------|3----------------------|
E|-----------------------|-----------------------|-----------------------|
  time,                   Been a  long,   long    time,


G|----------- -----------|----------- -----------|----------- -----------|
D|-----------------------|5----------------------|3----------------------|
A|-----------------------|-----------------------|-----------------------|
E|-----------------------|-----------------------|-----------------------|
  been a  long,   long    time,           I   was     wrong,  girl,


G|----------- -----------|----------- -----------|----------- -----------|
D|-----------------------|-----------------------|5----------------------|
A|-----------------------|3----------------------|-----------------------|
E|-----------------------|-----------------------|-----------------------|
              and you were    right.

Verse:
G|----------- -----------|----------- -----------|----------- -----------|
D|-----------------------|-----------------------|----------------0---2--|
A|3----------------------|-----------------------|-----------------------|
E|-----------------------|-----------------------|-----------------------|
  Ba    -     by,         ba    -     by,         took a  long,   long


G|----------- -----------|----------- -----------|----------- -----------|
D|3----------------------|----------------2---0--|-----------------------|
A|-----------------------|-----------------------|3----------------------|
E|-----------------------|-----------------------|-----------------------|
  while,                  Took a      long, long  while,


G|----------- -----------|----------- -----------|----------- -----------|
D|-----------------------|5----------------------|3----------------------|
A|-----------------------|-----------------------|-----------------------|
E|-----------------------|-----------------------|-----------------------|
  took a  long,   long    while,          But I   found   out


G|----------- -----------|----------- -----------|----------- -----------|
D|-----------------------|-----------------------|-----------------------|
A|-----------------------|3----------------------|-----------------------|
E|-----------------------|-----------------------|-----------------------|
              you were    right.

Bridge:
G|----------- -----------|----------- -----------|----------- -----------|
D|-----------------------|-----------------------|5----------------------|
A|5----------------------|-----------------------|-----------------------|
E|-----------------------|-----------------------|-----------------------|
              Still   you have    those   happy       eyes,


G|----------- -----------|----------- -----------|----------- -----------|
D|-----------------------|3----------------------|-----------------------|
A|-----------------------|-----------------------|-----------------------|
E|-----------------------|-----------------------|-----------------------|
                                      I   will    try         and     a-


G|----------- -----------|----------- -----------|
D|5----------------------|-----------------------|
A|-----------------------|-----------------------|
E|-----------------------|-----------------------|
  po    -     lo    -     gize.

Verse:
G|----------- -----------|----------- -----------|----------- -----------|
D|-----------------------|-----------------------|----------------0---2--|
A|3----------------------|-----------------------|-----------------------|
E|-----------------------|-----------------------|-----------------------|
  Ba    -     by,         ba    -     by,         still the   same old


G|----------- -----------|----------- -----------|----------- -----------|
D|3----------------------|----------------2---0--|-----------------------|
A|-----------------------|-----------------------|3----------------------|
E|-----------------------|-----------------------|-----------------------|
  smile,                  Still the   same old    smile,


G|----------- -----------|----------- -----------|----------- -----------|
D|-----------------------|5----------------------|3----------------------|
A|-----------------------|-----------------------|-----------------------|
E|-----------------------|-----------------------|-----------------------|
  still the   same old    smile,          I   was     so      wrong,  girl,


G|----------- -----------|----------- -----------|----------- -----------|
D|-----------------------|-----------------------|-----------------------|
A|-----------------------|3----------------------|-----------------------|
E|-----------------------|-----------------------|-----------------------|
              and you were    right.

Bridge:
G|----------- -----------|----------- -----------|----------- -----------|
D|-----------------------|-----------------------|5----------------------|
A|5----------------------|-----------------------|-----------------------|
E|-----------------------|-----------------------|-----------------------|
              Still   you have those      happy       eyes,


G|----------- -----------|----------- -----------|----------- -----------|
D|-----------------------|3----------------------|-----------------------|
A|-----------------------|-----------------------|-----------------------|
E|-----------------------|-----------------------|-----------------------|
  yeah,           But I,      I'm gonna try,          I'm gonna try and a-


G|----------- -----------|----------- -----------|
D|5----------------------|-----------------------|
A|-----------------------|-----------------------|
E|-----------------------|-----------------------|
  po    -     lo    -     gize,       oh!

Verse:
G|----------- -----------|----------- -----------|----------- -----------|
D|-----------------------|-----------------------|----------------0---2--|
A|3----------------------|3----------------------|-----------------------|
E|-----------------------|-----------------------|-----------------------|
  Ba    -     by,         ba    -     by,         been a  long,   long


G|----------- -----------|----------- -----------|----------- -----------|
D|3----------------------|----------------2---0--|-----------------------|
A|-----------------------|-----------------------|3----------------------|
E|-----------------------|-----------------------|-----------------------|
  time,                   Been a  long,   long    time,


G|----------- -----------|----------- -----------|----------- -----------|
D|-----------------------|5----------------------|3----------------------|
A|-----------------------|-----------------------|-----------------------|
E|-----------------------|-----------------------|-----------------------|
  been a  long,   long    time,           I   was     wrong,      girl,


G|----------- -----------|2---------- -----------|----------- -----------|
D|-----------------------|-----------------------|5----------------------|
A|-----------------------|-----------------------|-----------------------|
E|-----------------------|-----------------------|-----------------------|
              and you were    right,              oh!

Verse:
G|----------- -----------|----------- -----------|----------- -----------|
D|-----------------------|-----------------------|----------------0---2--|
A|3----------------------|-----------------------|-----------------------|
E|-----------------------|-----------------------|-----------------------|
      Babe,               ba   -    by,           won't you   change  your


G|----------- -----------|----------- -----------|----------- -----------|
D|3----------------------|----------------2---0--|-----------------------|
A|-----------------------|-----------------------|3----------------------|
E|-----------------------|-----------------------|-----------------------|
  mind,                   Won't you   change  your mind,


G|----------- -----------|----------- -----------|----------- -----------|
D|-----------------------|5----------------------|3----------------------|
A|-----------------------|-----------------------|-----------------------|
E|-----------------------|-----------------------|-----------------------|
  won't you       change  mind?           I   was   wrong, girl,
                      your

G|----------- -----------|2---------- -----------|----------- -----------|
D|-----------------------|-----------------------|5-----------5---5---5--|
A|-----------------------|-----------------------|-----------------------|
E|-----------------------|-----------------------|-----------------------|
          but not     this,           no!             I,      I   said,

Verse:
G|----------- -----------|----------- -----------|----------- -----------|
D|-----------------------|-----------------------|----------------0---2--|
A|3----------------------|-----------------------|-----------------------|
E|-----------------------|-----------------------|-----------------------|
  Ba  -   by,             ba  -   by,        it's been a  long, long


G|----------- -----------|----------- -----------|----------- -----------|
D|3----------------------|----------------2---0--|-----------------------|
A|-----------------------|-----------------------|3----------------------|
E|-----------------------|-----------------------|-----------------------|
  time,           It's    such long   lonely  time,   girl,       it's been
                      been  a     and

G|----------- -----------|----------- -----------|----------- -----------|
D|-----------------------|5----------------------|3----------------------|
A|-----------------------|-----------------------|-----------------------|
E|-----------------------|-----------------------|-----------------------|
  such long, a long, long time.       I   was     wrong,  but I admit,
    a

G|----------- -----------|2---------- -----------|----------- -----------|
D|-----------------------|-----------------------|5----------------------|
A|-----------------------|-----------------------|-----------------------|
E|-----------------------|-----------------------|-----------------------|
        I ad- mit you were right,                 oh,      come on now!

Verse:
G|----------- -----------|----------- -----------|----------- -----------|
D|-----------------------|-----------------------|----------------0---2--|
A|3----------------------|-----------------------|-----------------------|
E|-----------------------|-----------------------|-----------------------|
  Ba  -   by,             ba  -   by,   oh, won't change        your    mind?
                                          just  you

G|----------- -----------|----------- -----------|----------- -----------|
D|3----------------------|----------------2---0--|-----------------------|
A|-----------------------|-----------------------|3----------------------|
E|-----------------------|-----------------------|-----------------------|
                I   you   change   mind,  babe,                 I want
                  want  to      your                                you
                                                                      to
G|----------- -----------|----------- -----------|----------- -----------|
D|-----------------------|5----------------------|3----------------------|
A|-----------------------|-----------------------|-----------------------|
E|-----------------------|-----------------------|-----------------------|
  come    change  your mind,              I   was wrong,      I,
    on  and

G|----------- -----------|2---------- -----------|----------- -----------|
D|-----------------------|-----------------------|5----------------------|
A|-----------------------|-----------------------|-----------------------|
E|-----------------------|-----------------------|-----------------------|
  I,          I,          oh...
fade out...

Please e-mail me for any corrections, or write a comment.
            
Submit corrections

comments powered by Disqus
↑ Back to top | Rolling Stones Bass for Long Long While. Lyrics for acoustic guitar and electric guitar. Tablatures and chords are parodies/interpretations of the original songs. You may use it for private study, scholarship, research or language learning purposes only