>
 >
Live With Me

Live With Me Bass Tabs

Rolling Stones - Live With Me chords, tabs, tablatures, lyrics

Guitar lessons | Add/correct | Request | Top 50 tabs Artists:  A B C D E F G H I J K L M N O P Q R S T U V W X Y Z 0-9

Live With Me Bass Tabs – Rolling Stones

CD, Sheet music, Poster

Do you like Live With Me? Share with your friends now
Bass TabsChordsTabsUkulele
Intro					      (Drums enter)
G||----------------|----------------|----------------|----------------|
D||----------------|----------------|----------------|----------------|
A||--------3-------|5---3-----------|--------3-------|5---3-----------|
E||--0-3-5---5-3-5-|--------5-3---5-|--5-3-0---5-3-5-|--------5-3---5-|
   ^   ^   ^   ^    ^   ^   ^   ^    ^   ^   ^   ^    ^   ^   ^   ^
|----------------||
|----------------||
|-3-3--3-3-------||
|----------5-3---||
^   ^   ^   ^
Verse 1 ("I got nasty habits...")
||----------------|----------------|----------------|----------------|
||----------------|------------5-7-|----------------|------------5-7-|
||5---3-----------|----4---5-7-----|5---3-----------|----4-4-5-7-----|
||--------5-3---5-|--5-------------|--------5-3---5-|--5-------------|
  ^   ^   ^   ^    ^   ^   ^   ^    ^   ^   ^   ^    ^   ^   ^   ^
|----------------|----------------|----------------|----------------|
|----------------|----------------|----------------|----------------|
|5---3-----------|--3-----5-3-----|5---3-----------|--3-----3-------|
|--------5-3---5-|----5-3-----5-3-|--------5-3---5-|----5-3---5-3-5-|
^   ^   ^   ^    ^   ^   ^   ^    ^   ^   ^   ^    ^   ^   ^   ^
("My best friend, he shoots...")
|----------------|----------------|----------------|----------------|
|----------------|------------5-7-|----------------|----------------|
|5---3-----------|----4---5-7-----|5---3-----------|--------3-------|
|--------5-3---5-|--5-------------|--------5-3---5-|--5-3-0---5-3-5-|
^   ^   ^   ^    ^   ^   ^   ^    ^   ^   ^   ^    ^   ^   ^   ^
|----------------|----------------|----------------|----------------||
|----------------|------------5-7-|----------------|----------------||
|5---3-----------|----4---5-7-----|5---3-----------|----4---5-5-6-6-||
|--------5-3---5-|--5-------------|--------5-3---5-|--5-------------||
^   ^   ^   ^    ^   ^   ^   ^    ^   ^   ^   ^    ^   ^   ^   ^
  Chorus 1 ("Come on now, honey...")
||----------------|----------------|----------------|----------------|
||----------------|----------------|----------------|----------------|
||7---------------|----------------|----------------|----------------|
||--0-0-0-0-0-0-0-|3-3-3-3-3-3-3-3-|5-5-5-5-5-5-5-5-|5-5-5-5-5-5-5-5-|
  ^   ^   ^   ^    ^   ^   ^   ^    ^   ^   ^   ^    ^   ^   ^   ^
|----------------|----------------|----------------|----------------||
|----------------|----------------|----------------|----------------||
|----------------|----------------|--------3-------|--------3-------||
|0-0-0-0-0-0-0-0-|3-3-3-3-3-3-3-3-|--5-3-0---5-3-5-|--5-3-0---5-3-5-||
^   ^   ^   ^    ^   ^   ^   ^    ^   ^   ^   ^    ^   ^   ^   ^
  Verse 2 ("There's a score of hair-brained...")
||----------------|----------------|----------------|----------------|
||----------------|------------5-7-|----------------|------------5-7-|
||5---3-----------|----4---5-7-----|5---3-----------|----4---5-7-----|
||--------5-3---5-|--5-------------|--------5-3---5-|--5-------------|
  ^   ^   ^   ^    ^   ^   ^   ^    ^   ^   ^   ^    ^   ^   ^   ^
|----------------|----------------|----------------|----------------|
|----------------|------------5-7-|----------------|----------------|
|5---3-----------|----4---5-7-----|5---3-----------|--------3-------|
|--------5-3---5-|--5-------------|--------5-3---5-|--5-3-0---5-3-5-|
^   ^   ^   ^    ^   ^   ^   ^    ^   ^   ^   ^    ^   ^   ^   ^
("Well they queue up...")
|----------------|----------------|----------------|----------------|
|----------------|------------5-7-|----------------|----------------|
|5---3-----------|----4---5-7-----|5---3-----------|--------3-------|
|--------5-3---5-|--5-------------|--------5-3---5-|--5-3-0---5-3-5-|
^   ^   ^   ^    ^   ^   ^   ^    ^   ^   ^   ^    ^   ^   ^   ^
|----------------|----------------|----------------|----------------||
|----------------|------------5-7-|----------------|----------------||
|5---3-----------|----4---5-7-----|5---3-----------|----4---5-5-6-6-||
|--------5-3---5-|--5-------------|--------5-3---5-|--5-------------||
^   ^   ^   ^    ^   ^   ^   ^    ^   ^   ^   ^    ^   ^   ^   ^
  Chorus 2 ("You'd look good pram-pushin'...")
||----------------|----------------|----------------|----------------|
||----------------|----------------|----------------|----------------|
||7---------------|----------------|----------------|----------------|
||--0-0-0-0-0-0-0-|3-3-3-3-3-3-3-3-|5-5-5-5-5-5-5-5-|5-5-5-5-5-5-5-5-|
  ^   ^   ^   ^    ^   ^   ^   ^    ^   ^   ^   ^    ^   ^   ^   ^
|----------------|----------------|----------------|----------------||
|----------------|----------------|----------------|----------------||
|----------------|----------------|----------------|----------------||
|0-0-0-0-0-0-0-0-|3-3-3-3-3-3-3-3-|5---------------|----------------||
^   ^   ^   ^    ^   ^   ^   ^    ^   ^   ^   ^    ^   ^   ^   ^
  Sax solo
||----------------|----------------|----------------|----------------|
||----------------|----------------|----------------|------------5-7-|
||5---3-----------|--------3-------|5---------------|----4---5-7-----|
||--------5-3---5-|--5-3-0---5-3-5-|----3---5-3---5-|--5-------------|(x3)
  ^   ^   ^   ^    ^   ^   ^   ^    ^   ^   ^   ^    ^   ^   ^   ^
|----------------|----------------|----------------|----------------|
|----------------|------------5-7-|----------------|----------------|
|5---3-----------|----4---5-7-----|5---------------|----4---5-5-6-6-|
|--------5-3---5-|--5-------------|----3---5-3---5-|--5-------------|
^   ^   ^   ^    ^   ^   ^   ^    ^   ^   ^   ^    ^   ^   ^   ^
|----------------|----------------|----------------|----------------|
|----------------|----------------|----------------|----------------|
|7---------------|----------------|----------------|----------------|
|--0-0-0-0-0-0-0-|3-3-3-3-3-3-3-3-|5-5-5-5-5-5-5-5-|5-5-5-5-5-5-5-5-|
^   ^   ^   ^    ^   ^   ^   ^    ^   ^   ^   ^    ^   ^   ^   ^
|----------------|----------------|----------------|----------------||
|----------------|----------------|----------------|----------------||
|----------------|----------------|--------3-------|--------3-------||
|0-0-0-0-0-0-0-0-|3-3-3-3-3-3-3-3-|--5-3-0---5-3-5-|--5-3-0---5-3-5-||
^   ^   ^   ^    ^   ^   ^   ^    ^   ^   ^   ^    ^   ^   ^   ^
  Verse 3/Outro ("Woah, the servants, they're so helpful...")
||----------------|----------------|----------------||
||----------------|----------------|----------------||
||5---3-----------|----------------|5---3-----------||
||--------5-3---5-|--5-3-0-5-3-0-3-|--------5-3---5-||
  ^   ^   ^   ^    ^   ^   ^   ^    ^   ^   ^   ^
||----------------||
||----------------||
||----------------||
||5---5---5-5-3-5-||(x6)
  ^   ^   ^   ^
  ("The maid, she's French, she's got no sense...")
||--------------------------------|--------------------------------||
||--------------------------------|--------------------------------||
||----------------12--12------12--|12------12------12--12------12--||
||5-------5-----------------------|--------------------------------||
  ^       ^       ^       ^        ^       ^       ^       ^ (etc.)





Comments


Popular Rolling Stones tabs & chords
Long Long While Bass Tabs
Its All Over Now 1 Chords
No Expectations Chords
Rock And A Hard Place Chords
Ruby Tuesday 2 Chords
Stray Cat Blues Chords
Time Waits For No One 1 Chords
Aint Proud To Beg Tabs
Already Over Me Tabs
Love Is Strong Tabs


Song lyrics



↑ Back to top | Tablatures and chords are parodies/interpretations of the original songs. You may use it for private study, scholarship, research or language learning purposes only
© 2014 AZChords.com Contact us | Privacy policy | DMCA | Add/correct tabs | Request tabs | Top 50 tabs