» » »

Jumpin Jack Flash Bass tabs (ver.4)

Artists:  A B C D E F G H I J K L M N O P Q R S T U V W X Y Z # 

Jumpin Jack Flash Bass tabs (ver.4)

Rolling Stones
Rating:
0/5 (0 votes)

Hard to play? Try these video lessons and learn fast.
                Jumpin Jack Flash - Rolling Stones


intro
G----------------------------------------------------------|
D---8-------8--------8-8-8-8--------6------6-6-------------|
A-----------------------------6----------------------------|
E----------------------------------------------------------|

bridge1
G-----------------8-------6-------5----------|
D--8-8-8-8-8-8-------------------------------|  x2
A--------------------------------------------|
E--------------------------------------------|

bridge2
G---------------------------------------------------------------------|
D--8-8-8-8-8-8-8-8------8-8-8-8-8-8-8-8---------8-8-8-8-8-8-8-8-------| x1
A---------------------------------------------------------------------|
E---------------------------------------------------------------------|

verse
G-------------------------------|
D--8-8------6-------6------6----|   x6 (x2 intro, x4 verse)
A-------6-8-----6-8----6-8------|
E-------------------------------|

chorus									after 2nd
G--6--6-6-6-5-------------567---------------------------   ----------|
D---------------6-6-6-6-6------8--8-8-8-6-------------8-   -88888888-|
A-------------------------------------------8-8-8-8-8---   ----------|
E-------------------------------------------------------x2 ----------|

verse

chorus

bridge1 x4

bridge2

verse

chorus

outro
G--------------------------------------------|
D--------------------------------------------|
A-----------------6-------4-------3----------|
E--6-6-6-6-6-6-------------------------------|   repeat and fade
            
Hard to play? Try these video lessons and learn fast. | Correct




comments powered by Disqus
↑ Back to top | Tablatures and chords are parodies/interpretations of the original songs. You may use it for private study, scholarship, research or language learning purposes only