>
 >
Its Only Rock & Roll

Its Only Rock & Roll Guitar Tabs

Rolling Stones - Its Only Rock & Roll chords, tabs, tablatures, lyrics

Guitar lessons | Add/correct | Request | Top 50 tabs Artists:  A B C D E F G H I J K L M N O P Q R S T U V W X Y Z 0-9

Its Only Rock & Roll Guitar Tabs – Rolling Stones

CD, Sheet music, Poster

Do you like Its Only Rock & Roll? Share with your friends now
Tabs
It's Only Rock & Roll [1974]
Rolling Stones
__________________________________________________________
Intro:
 E
--------------------------------------------------|
-10/12~--10/12-10-9----------9--------------------|
-11/13~--11/13-11-9--9----9--11-(13)-11p9------9~-|
---------------------9h11---------------9h11------|
--------------------------------------------------|
--------------------------------------------------|

[E]If I could stick a pen in my heart
I would spill it all over the stage
Would it satisfy ya?Would it slide on by ya?
Would you think the boy is strange?
Ain't it [A]s[G]a[E]nge?

This riff goes through the second verse:
-0-0----0----0--0-----0--|
-0-0----0----0--0-----0--|
----0h1-----------0h1----|
-------------------------|
-------------------------|
-------------------------|
[E]If I could win ya, If I could sing ya
A love song so divine
Would it be enough for your cheating heart
If I broke down and cried?
If I [A]cr[G]i[E]ed?

Chorus:
-------12---------12------------------------|
-12----12---12----12---12-------------------|
-14h16------14h16------14h16-14--12-(14)----|
-----------------------------------------14-|
--------------------------------------------|
--------------------------------------------|

I said [A]I know it's only rock and roll, but I[E] like it
[A]I know it's only rock and roll,
But I[E] like it,[D] like it,[E] yes I do

Bridge:
Oh well I[A] like it 
I[E] like it,I[A]like it
I said[D] can't you[A] see
That[D] this old[E] boy has been a-[E]lonely

Bridge:
-------------------------------------|
-------------------------------------|
-------9-11-12-13-13-13-13-13---11~--|
--9h11-------------------------------|
-------------------------------------|
-------------------------------------|

1:06
------11------11-------[9]-|
---------------------------|
-9/11----9/11----11\9------|
---------------------------|
---------------------------|
---------------------------|

------------------------------------------|
-12-----12--12-----12---------------------|
-14h16--12--14h16--12---------------------|
----------------------14-(16)-12-(13)-----|
-------------------------------------14~--|
------------------------------------------|

[E]If I could stick a knife in my heart
Suicide right on the stage
Would it be enough for your teenage lust
Would it help to ease the pain?
Ease your[A] br[G]a[E]in?

[E]If I could dig down deep in my heart
Feelings would flood on the page
Would it satisfy ya, would it slide on by ya,
Would you think the boy's insane?
He's[A] in[G]s[E]ane

Chorus Riff:
-------12---------12------------------------|
-12----12---12----12---12-------------------|
-14h16------14h16------14h16-14--12-(14)----|
-----------------------------------------14-|
--------------------------------------------|
--------------------------------------------|
I said[A] I know it's only rock and roll, but I[E] like it
[A]I know it's only rock and roll,
But I[E] like it,[D] like it,[A] yes I[E] do

Oh well I[A] like it 
I[E] like it,I[A]like it
I said[D] can't you[A] see
That[D] this old[A] boy has been a-[E]lonely

And[B] do ya think that you're the only girl[A] around?
I[B] bet you think that you're the only woman in[A] town

Guitar Solo:
2:40

2x
--------------------------------------|
-12------12-----12------12------------|
-14h16---14h16--14h16---12--14-12-----|
---------------------------------14---|
--------------------------------------|
--------------------------------------|

-------12-12-------12-12---------------12-12-|
-12----12-12-12----12-12-15------------12-12-|
-14h16-------14h16-------14h16p14-12h13------|
---------------------------------------------|
---------------------------------------------|
---------------------------------------------|

------12----------12-12---------12---------12----------12--|
-12---12---12-----12-12--12-----12--12-----12-12--12---12--|
-14--------14h16---------14h16------14(16)----14--14-------|
-----------------------------------------------------------|
-----------------------------------------------------------|
-----------------------------------------------------------|

---------12---------12----------------------------|
-12--12--12--12-----12---15--15----------------9--|
-14-(14)-----14h16-------14--14--9-11-(13)--------|
-------------------------------------------9h11---|
--------------------------------------------------|
--------------------------------------------------|

       
I said[A] I know it's only rock and roll, but I[E] like it
[A]I know it's only rock and roll,
I said[A] I know it's only rock and roll, but I[E] like it
[A]I know it's only rock and roll,
But I[E] like it,[D] like it,[A] yes I[E] do
Oh well I[A] like it 
I[E] like it,I[A]like it

Acoustic riff that starts at 3:28,on the "I like it" line:
--0--0---0--0--0--0---|
--2--2---5--3--2--0---|
--2--2---6--4--2--1---|
--2--2------------2---|
--0--0------------2---|
------------------0---|

This is the electric lick at 3:45
----------------------------------------|
----------------------------------------|
-14h[16]-14h[16]-14h[16]-14--12(13)-----|
-----------------------------------14~--|
----------------------------------------|
----------------------------------------|

Outro riff[at 4:02]:
------------------------------------------|
-12------12-------12----------------------|
-14h(16)-14h(16)--14h(16)~--14-12-13------|
-------------------------------------14~--|
------------------------------------------|
------------------------------------------|

The repeat the bridge[kind of]and add some improvising.

Bridge:
-------------------------------------|
-------------------------------------|
-------9-11-12-13-13-13-13-13---11~--|
--9h11-------------------------------|
-------------------------------------|
-------------------------------------|

------11------11-------[9]-|
---------------------------|
-9/11----9/11----11\9------|
---------------------------|
---------------------------|
---------------------------|

------------------------------------------|
-12-----12--12-----12---------------------|
-14h16--12--14h16--12---------------------|
----------------------14-(16)-12-(13)-----|
-------------------------------------14~--|
------------------------------------------|





Comments


Popular Rolling Stones tabs & chords
Jumpin Jack Flash 5 Bass Tabs
Under My Thumb 2 Bass Tabs
As Tears Go By 5 Chords
Memory Motel Chords
Are You Already Over Me 1 Tabs
Dead Flowers 1 Tabs
Waiting On A Friend Tabs
Eileen Ukulele
Going Home Ukulele
I Got The Blues Ukulele


Song lyrics



↑ Back to top | Tablatures and chords are parodies/interpretations of the original songs. You may use it for private study, scholarship, research or language learning purposes only
© 2014 AZChords.com Contact us | Privacy policy | DMCA | Add/correct tabs | Request tabs | Top 50 tabs