» » »

If You Need Me Tabs (ver.1)

Artists:  A B C D E F G H I J K L M N O P Q R S T U V W X Y Z # 

If You Need Me Tabs (ver.1)

Rolling Stones
Rating:
0/5 (0 votes)

Hard to play? Try these video lessons and learn fast.
                The Rolling Stones
Guitarists: Keith Richards
Tuning: Standard


This song is more structured than most of their other songs. Just follow the Fig. 1
pattern through all of the verses. There is only one guitar on this track. It almost
sounds like the notes are being lightly palm muted, so you can play them like that
or you can play them regular. However, the guitar tone is rather clean so don't overdo it.

Let notes ring out on End 1, and pay attention to timing.


Fig 1.

------------------------------------------------2-----------2----------|
---------0-----------------0------------------3---3-------3---3--------|
-------0---0-------------0---0--------------2-------2---2-------2------|
-----0-------0---------0-------0----------0-----------0----------------|
-----------------------------------------------------------------------|
-3------------------3--------------------------------------------------|

------------------------------------------0----------------0-----------|
--------0----------------0--------------1---1------------1---1---------|
------0---0------------0---0------------------0-----------------0------|
----0-------0--------0-------0-------2----------------2----------------|
-----------------------------------3----------------3------------------|
-3----------------3----------------------------------------------------|

------------------------------------------2-----------2----------------|
-------0---------------0----------------3---3-------3---3--------------|
-----0---0-----------0---0------------2-------2---2-------2------------|
---0-------0-------0-------0--------0-----------0----------------------|
-----------------------------------------------------------------------|
-3--------------3------------------------------------------------------|

---------------------------------------------------------2-------------|
--------0----------------0--------------0--------------3---3-----------|
----------0-----------------0---------0---0----------2-------2---------|
-----2------2---------2-------2-----0-------0------0-------------------|
---2---------------2---------------------------------------------------|
-0---------------0---------------3-------------------------------------|


End 1

-----------------------3------------------------------------------------|
--------0------------3--------------------------------------------------|
-------------------0----------------------------------------------------|
-----2-----------0------------------------------------------------------|
---2--------------------------------------------------------------------|
-0------------3---------------------------------------------------------|
            
Hard to play? Try these video lessons and learn fast. | Correct




comments powered by Disqus
↑ Back to top | Tablatures and chords are parodies/interpretations of the original songs. You may use it for private study, scholarship, research or language learning purposes only