>
 >
Honky Tonk Women 1

Honky Tonk Women 1 Guitar Tabs

Rolling Stones - Honky Tonk Women 1 chords, tabs, tablatures, lyrics

Guitar lessons | Add/correct | Request | Top 50 tabs Artists:  A B C D E F G H I J K L M N O P Q R S T U V W X Y Z 0-9

Honky Tonk Women 1 Guitar Tabs – Rolling Stones

CD, Sheet music, Poster

Do you like Honky Tonk Women 1? Share with your friends now
Bass TabsTabsTabs v2
HONKY TONK WOMEN- The Rolling Stones

TUNING: D G D G B D  (OPEN G)

|------|---------|...|---------|-----0-0-0-0-0-|-0-0-0-0-0-0-0-0-|---------|
|------|---------|...|---------|---------------|-----------------|---------|
|----0-|-0---0-0-|...|-0---0-0-|-0---4-2-0-2-0-|-4-2-0---0-2-0-0-|-0---0-0-|
|----0-|-0---0-0-|...|-0---0-0-|-0-------------|-------2---------|-0---0-0-|
|------|---------|...|---------|---------------|-----------------|---------|
|------|---------|...|---------|---------------|-----------------|---------|

               C                        G         A         D            
|------------|---------|-----5-3-0-0--|---------|---------|---------|
|------------|-5---6-6-|-5------------|---------|-----3-2-|-7---8-8-|
|-0--------0-|-5---5-5-|-5---0-0-0-3b-|-0-------|-2---2-2-|-7---7-7-|
|-0--------0-|-5---7-7-|-5------------|-0-------|-2---4-2-|-7---9-9-|
|-----0-3b---|-5---5-5-|-5------------|-0---0-1-|-2---2-2-|-7---7-7-|
|------------|---------|--------------|---------|---------|---------|

               G                  C                        
G                
|------------|---------|--------|---------|-----5-3-0-0--|----------|
|-7----------|---------|--------|-5---6-6-|-5------------|----------|
|-7--------0-|-----0-0-|------0-|-5---5-5-|-5---0-0-0-3b-|-0------0-|
|-7--------0-|-----0-0-|------0-|-5---7-7-|-5------------|-0------0-|
|-7---0-3b---|-0-------|-0-3b---|-5---5-5-|-5------------|-0-0-3b---|
|------------|---------|--------|---------|--------------|----------|

                G                                                         
|-------------|----...
|-7-----------|----...
|-7-------(7)-|-0--...
|-7---(7)-----|-0--...
|-7-----------|-0--...
|-------------|----...                       

G                                   C
I met a gin-soaked barroom queen in Memphis 
    G                A              D
She tried to take me upstairs for a ride 
         G                               C
The lady had to heave me across her shoulder 
      G                  D                G
Now I just can't seem to drink you off my mind

CHORUS:
         G D     G      
She's a honky tonk woman
                  D                      G
Give me, give me, give me the honky-tonk blues
G D         G
Honky-tonk women
                  D                      G
Give me, give me, give me the honky-tonk blues

I met a divorcee in New York City
I had to put up some kind of a fight
The lady went and covered me up in roses
She blew my nose and then she blue my mind
CHORUS TWICE


NOTE:   This is just a tidying up of previous versions designed to  fit 
onto a single page.





Comments


Popular Rolling Stones tabs & chords
Its All Over Now Bass Tabs
Under My Thumb 2 Bass Tabs
Gunface Chords
Not Fade Away Chords
Let Me Down Slow Tabs
Melody Tabs
Shattered Tabs
As Tears Go By Ukulele
Confessin The Blues Ukulele
Heartbreaker Ukulele


Song lyrics



↑ Back to top | Tablatures and chords are parodies/interpretations of the original songs. You may use it for private study, scholarship, research or language learning purposes only
© 2014 AZChords.com Contact us | Privacy policy | DMCA | Add/correct tabs | Request tabs | Top 50 tabs