>
 >
Gimmie Shelter 1

Gimmie Shelter 1 Guitar Tabs

Rolling Stones - Gimmie Shelter 1 chords, tabs, tablatures, lyrics

Guitar lessons | Add/correct | Request | Top 50 tabs Artists:  A B C D E F G H I J K L M N O P Q R S T U V W X Y Z 0-9

Gimmie Shelter 1 Guitar Tabs – Rolling Stones

CD, Sheet music, Poster

Do you like Gimmie Shelter 1? Share with your friends now
ChordsTabsTabs v2Ukulele
Rolling Stones
Gimme Shelter!

^=BEND UP full tone
^h=bend half tone
^q=bend quarter tone

INTRO all finger picking with thumb on the D string

E--------------------------------------------------------------------------------}
B-------7----7----7-6----------5---5----5-4--------4-2---4-2----4-2--------4-5-4-}
G----6--8----8----8-6-------4--6---6----6-4-----2--4-2---4-2----4-2--------4-4-4-}
D--6------6----6----------4------4----4-------2---------2------2-----2---4-------}
A--------------------------------------------------------------------------------}
E--------------------------------------------------------------------------------}

INTRO PART 2 all finger picking

E-------------------------------------------------------------------------}
B-------7-----9-7-6------5----7-5-4--------4-2---4-2----4-2--------4-5-4--}
G----6--6-----6-6-6----4-4----4-4-4-----2--4-2---4-2----4-2--------4-4-4--}
D--6------6----------4-----4----------2--------2------2------2----4-------}
A-------------------------------------------------------------------------}
E-------------------------------------------------------------------------}

THE SOLO OVER INTRO

E----7-9-9-----------}
B-------------7^h----} this bend is a quarter tone, only bend up a little bit.
G--------------------}
D--------------------}
A--------------------}
E--------------------}

VERSE riff played with 4/4 strumming.

E------------------------------------------}
B----8-8-8-7-8-7-8-7----8-8-8-8-7--x--x----}
G----7-7-7-7-7-7-7-7----7-7-7-7-7--x--x----}
D----9-9-9-7-9-7-9-7----9-9-9-9-7--10-7----}
A------------------------------------------}
E------------------------------------------}

CHORUS

E------------------------------------------------------------------------}
B--6-6-6-6-6-6-7-6---------------------2-2-2-2-2-2-----2---2---2---2-----}
G--6-6-6-6-6-6-6-6---4-4-4-4-4-4-5-4---2-2-2-2-2-2-----2---2---2---2--33-}
D--6-6-6-6-6-6-6-6---4-4-4-4-4-4-4-4---2-2-2-2-2-2---2-2-2-2-2-2-2-2--33-}
A--4-4-4-4-4-4-4-4---2-2-2-2-2-2-2-2---0-0-0-0-0-0---2-0-2-0-2-0-2-0--22-}
E----------------------------------------------------0---0---0---0-------}


SOLO
Keith Richards changes the solo evrytime but its always in the key of C#m pentatonic.
the record solo is route on the *D string 11th fret*

Here is the version on the record, IT STARTS ON BEAT 2 OF THE CHORUS. 

E------------------------------------------------------------------------)
B---------------------------------------9---------------99999------------)
G-11^-9---------9------------9----9-11^---11^-9-11-9-11^------11-9-11-11-)
D-------11-9-11---11-9-11------11----------------------------------------)
A------------------------------------------------------------------------)
E------------------------------------------------------------------------)

carried on...

E----------------------------------------------------------------------------}
B--------------------12^^^^^------------------------9---9---9----------------}
G--11^^^^11-9----------------11^-11-9-------11-9-11^-11^-11^-11^-11-9--------}
D-------------11-11-------------------11------------------------------11-11--}
A----------------------------------------------------------------------------}
E----------------------------------------------------------------------------}

then repeat chrous till end.
The effect on the intro is called a textrem or vibrato depending on the pedal you have.





Comments


Popular Rolling Stones tabs & chords
Factory Girl 1 Chords
I Just Want To Make Love To You 1 Chords
Its All Over Now 1 Chords
Let It Bleed 2 Chords
2000 Light Years From Home 1 Tabs
Around And Around Tabs
Doom And Gloom 1 Tabs
Flip The Switch Tabs
Shattered 1 Tabs
Cant You Hear Me Knocking Ukulele


Song lyrics



↑ Back to top | Tablatures and chords are parodies/interpretations of the original songs. You may use it for private study, scholarship, research or language learning purposes only
© 2014 AZChords.com Contact us | Privacy policy | DMCA | Add/correct tabs | Request tabs | Top 50 tabs