» » »

Rolling Stones, Get Off My Cloud Bass tabs (ver.4)

Artists:  A B C D E F G H I J K L M N O P Q R S T U V W X Y Z # 

Get Off My Cloud Bass tabs (ver.4)

Rolling Stones Tabs
Rating:
0/5 (0 votes)
Get Off My Cloud lessons Tabs too difficult? Try these video lessons and learn fast
                Get Off Of My Cloud
The Rolling Stones
Written by Mick Jagger and Keith Richards; released as a single with "I'm 
Free" in the UK and "The Singer Not The Song" in the USA as B-sides; also on 
the album "December's Children (And Everybody's)".

Intro:
G|------- ------- ------- -------|------- ------- ------- -------|
D|-------------------------------|-------------------------------|
A|-------------------------------|-------------------------------|
E|-------------------------------|-------------------------------|
  (drums)                                                     Yeah!


G|------- ------- ------- -------|------- ------- ------- -------|
D|----------------7---7---7------|9-------9-----------7---7------|
A|7-------7----------------------|-------------------------------|
E|-------------------------------|-------------------------------|



G|------- ------- ------- -------|------- ------- ------- -------|
D|--------------------7---7------|9-------9-----------7---7------|
A|7-------7----------------------|-------------------------------|
E|-------------------------------|-------------------------------|
                                                              I

Verse:
G|------- ------- ------- -------|------- ------- ------- -------|
D|------------6---7--------------|9-------9---7-------7-------7--|
A|7-------9---------------9---9--|------------------------9------|
E|-------------------------------|-------------------------------|
  live on     an apartment on the ninety- ninth   floor of my


G|------- ------- ------- -------|------- ------- ------- -------|
D|------------6---7-----------7--|9-------9-------7-----------7--|
A|7-------9---------------9------|------------------------9------|
E|-------------------------------|-------------------------------|
  block,                                                  And I


G|------- ------- ------- -------|------- ------- ------- -------|
D|------------6---7-----------7--|9-------9---7------/7-------7--|
A|7-------9---------------9------|------------------------9------|
E|-------------------------------|-------------------------------|
  sit home loo-   out the window ima - gining the world   has
   at       king

G|------- ------- ------- -------|------- ------- ------- -------|
D|------------6---7-----------7--|9-------9---7-------7-------7--|
A|7-------9---------------9------|------------------------9------|
E|-------------------------------|-------------------------------|
  stopped.                                                    Then


G|------- ------- ------- -------|------- ------- ------- -------|
D|------------6---7-----------7--|9-------9---7-------7-------7--|
A|7-------9---------------9------|------------------------9------|
E|-------------------------------|-------------------------------|
  in flies a guy who's all dressed up just like a Union       Jack,


G|------- ------- ------- -------|------- ------- ------- -------|
D|------------6---7-----------7--|9-------9---7-------7-------7--|
A|7-------9---------------9------|------------------------9------|
E|-------------------------------|-------------------------------|
                                                              Says I've


G|------- ------- ------- -------|------- ------- ------- -------|
D|------------6---7-----------7--|9-------9---7-------7-------7--|
A|7-------9---------------9------|------------------------9------|
E|-------------------------------|-------------------------------|
      won five  pounds if I have  his kind of deter - gent    pack.


G|------- ------- ------- -------|------- ------- ------- -------|
D|------------6---7-----------7--|9-------9---7---------------7--|
A|7-------9---------------9------|------------------------9------|
E|-------------------------------|-------------------------------|
                                                      I   said:

Refrain:
G|------- ------- ------- -------|------- ------- ------- -------|
D|----------------6---6---6---6--|7---7---7---7---9---9---9---9--|
A|7-------7----------------------|-------------------------------|
E|-------------------------------|-------------------------------|
  Hey,            you,        get off of  my      cloud!
         (hey             you)

G|------- ------- ------- -------|------- ------- ------- -------|
D|----------------6---6---6---6--|7---7---7---7---9---9---9---9--|
A|7---7---7---7------------------|-------------------------------|
E|-------------------------------|-------------------------------|
  Hey,            you,        get off of  my      cloud!
         (hey             you)

G|------- ------- ------- -------|------- ------- ------- -------|
D|----------------6---6---6---6--|7---7---7---7---9---9---9---9--|
A|7---7---7---7------------------|-------------------------------|
E|-------------------------------|-------------------------------|
  Hey,            you,        get off of  my      cloud!
         (hey             you)

G|------- ------- ------- -------|------- ------- ------- -------|
D|-------------------------------|-------------------------------|
A|-------------------------------|-------------------------------|
E|10--10--10--10--10--10--10-----|7---7---7---7---7---7---7---5--|
  Don't hang around, 'cause       two's   a   crowd on my cloud, baby.


G|------- ------- ------- -------|------- ------- ------- -------|
D|--------------------7---7------|9-------9-----------7---7------|
A|7-------7-------------------9--|-------------------------------|
E|-------------------------------|-------------------------------|
                                              Yeah!           The

Verse:
G|------- ------- ------- -------|------- ------- ------- -------|
D|--------------------7---7------|9-------9-----------7---7------|
A|7-------7----------------------|----------------------------7--|
E|-------------------------------|-------------------------------|
  telephone is ringing, I say, "Hi, it's me. Who is it there on the


G|------- ------- ------- -------|------- ------- ------- -------|
D|----------------7-------7------|9-------9---7-------7-------7--|
A|7---7---7-----------9----------|------------------------9------|
E|-------------------------------|-------------------------------|
  line?"                                                    A voice


G|------- ------- ------- -------|------- ------- ------- -------|
D|------------6---7-----------7--|9-------9---7-------7-------7--|
A|7-------9---------------9------|------------------------9------|
E|-------------------------------|-------------------------------|
      says, "Hi, hello, how are you?" Well, I guess I'm doing fine.


G|------- ------- ------- -------|------- ------- ------- -------|
D|------------6---7-----------7--|9-------9---7-------7-------7--|
A|7-------9---------------9------|------------------------9------|
E|-------------------------------|-------------------------------|
                                                              Says "It's


G|------- ------- ------- -------|------- ------- ------- -------|
D|------------6---7-----------7--|9-------9---7-------7-------7--|
A|7-------9---------------9------|------------------------9------|
E|-------------------------------|-------------------------------|
  three a.m.,     too     noise,  people ever wanna go to     bed?
              there's much    don't
                                you
G|------- ------- ------- -------|------- ------- ------- -------|
D|------------6---7-----------7--|9-------9---7-------7-------7--|
A|7-------9---------------9------|------------------------9------|
E|-------------------------------|-------------------------------|
                                                              Just 'cause


G|------- ------- ------- -------|------- ------- ------- -------|
D|------------6---7-----------7--|9-------9---7-------7---7---7--|
A|7-------9---------------9------|-------------------------------|
E|-------------------------------|-------------------------------|
  you feel so good, do you have to drive me       out of my   head?"


G|------- ------- ------- -------|------- ------- ------- -------|
D|------------6---7-----------7--|9---9---9---7-------7-------7--|
A|7-------9---------------9------|------------------------9------|
E|-------------------------------|-------------------------------|
                                                      I   said:

Refrain:
G|------- ------- ------- -------|------- ------- ------- -------|
D|----------------6---6---6---6--|7---7---7---7---9---9---9---9--|
A|7---7---7---7------------------|-------------------------------|
E|-------------------------------|-------------------------------|
  Hey,            you,        get off of  my      cloud!
         (hey             you)

G|------- ------- ------- -------|------- ------- ------- -------|
D|----------------6---6---6---6--|7---7---7---7---9---9---9---9--|
A|7---7---7---7------------------|-------------------------------|
E|-------------------------------|-------------------------------|
  Hey,            you,        get off of  my      cloud!
         (hey             you)

G|------- ------- ------- -------|------- ------- ------- -------|
D|----------------6---6---6---6--|7---7---7---7---9---9---9---9--|
A|7---7---7---7------------------|-------------------------------|
E|-------------------------------|-------------------------------|
  Hey,            you,        get off of  my      cloud!
         (hey             you)

G|------- ------- ------- -------|------- ------- ------- -------|
D|-------------------------------|-------------------------------|
A|-------------------------------|-------------------------------|
E|10------10------10------10-----|7---7---7---7---7---7---7---5--|
  Don't hang around, 'cause       two's   a   crowd on my cloud, baby.


G|------- ------- ------- -------|------- ------- ------- -------|
D|--------------------7---7------|9-------9-----------7---7------|
A|7-------7----------------------|-------------------------------|
E|-------------------------------|-------------------------------|
                              Yeah!                           I was

Verse:
G|------- ------- ------- -------|------- ------- ------- -------|
D|--------------------7---7------|9-------9-----------7---7------|
A|7-------7-------------------9--|----------------------------6--|
E|-------------------------------|-------------------------------|
  sick tired, fed up with   and decided to take a drive downtown,
    and                this,

G|------- ------- ------- -------|------- ------- ------- -------|
D|------------6---7-----------7--|9---9---9---7-------7-------7--|
A|7-------9---------------9------|------------------------9------|
E|-------------------------------|-------------------------------|
                                                          It was so


G|------- ------- ------- -------|------- ------- ------- -------|
D|------------6---7-----------7--|9-------9---7------/7-------7--|
A|7-------9---------------9------|------------------------9------|
E|-------------------------------|-------------------------------|
      very    and peaceful,       nobody, not a   soul    a - round.
          quiet           there was

G|------- ------- ------- -------|------- ------- ------- -------|
D|------------6---7-----------7--|9-------9---7-------7-------7--|
A|7-------9---------------9------|------------------------9------|
E|-------------------------------|-------------------------------|
                                                              I


G|------- ------- ------- -------|------- ------- ------- -------|
D|------------6---7-----------7--|9-------9---7------/7-------7--|
A|7-------9---------------9------|------------------------9------|
E|-------------------------------|-------------------------------|
  laid my  -  self out, I was so  tired   and I   started    to


G|------- ------- ------- -------|------- ------- ------- -------|
D|------------6---7-----------7--|9-------9---7---------------7--|
A|7-------9---------------9------|------------------------9------|
E|-------------------------------|-------------------------------|
  dream,                                                  In    the


G|------- ------- ------- -------|------- ------- ------- -------|
D|------------6---7-----------7--|9---9---9---7------/7-------7--|
A|7-------9---------------9------|------------------------9------|
E|-------------------------------|-------------------------------|
  morning parking tickets    like flags           stuck on my wind-
        the            were
                          just
G|------- ------- ------- -------|------- ------- ------- -------|
D|------------6---7-----------7--|9---9---9---7---------------7--|
A|7-------9---------------9------|------------------------9------|
E|-------------------------------|-------------------------------|
      screen.                                         I   said:

Refrain:
G|------- ------- ------- -------|------- ------- ------- -------|
D|----------------6---6---6---6--|7---7---7---7---9---9---9---9--|
A|7-------7---7------------------|-------------------------------|
E|-------------------------------|-------------------------------|
  Hey,            you,        get off of  my      cloud!
         (hey             you)

G|------- ------- ------- -------|------- ------- ------- -------|
D|----------------6---6---6---6--|7---7---7---7---9---9---9---9--|
A|7---7---7---7------------------|-------------------------------|
E|-------------------------------|-------------------------------|
  Hey,            you,        get off of  my      cloud!
         (hey             you)

G|------- ------- ------- -------|------- ------- ------- -------|
D|----------------6---6---6---6--|7---7---7---7---9---9---9---9--|
A|7---7---7---7------------------|-------------------------------|
E|-------------------------------|-------------------------------|
  Hey,            you,        get off of  my      cloud!
         (hey             you)

G|------- ------- ------- -------|------- ------- ------- -------|
D|-------------------------------|-------------------------------|
A|-------------------------------|-------------------------------|
E|10--10--10--10--10--10--10--10-|7---7---7---7---7---7---7---7--|
  Don't hang around, 'cause       two's   a   crowd on my cloud, baby.

Refrain:
G|------- ------- ------- -------|------- ------- ------- -------|
D|----------------6---6---6---6--|7---7---7---7---9---9---9---9--|
A|7---7---7---7------------------|-------------------------------|
E|-------------------------------|-------------------------------|
  Hey,            you,        get off of  my      cloud!
         (hey             you)

G|------- ------- ------- -------|------- ------- ------- -------|
D|----------------6---6---6---6--|7---7---7---7---9---9---9---9--|
A|7---7---7---7------------------|-------------------------------|
E|-------------------------------|-------------------------------|
  Hey,            you,        get off of  my      cloud!
         (hey             you)

G|------- ------- ------- -------|------- ------- ------- -------|
D|----------------6---6---6---6--|7---7---7---7---9---9---9---9--|
A|7---7---7---7------------------|-------------------------------|
E|-------------------------------|-------------------------------|
  Hey,            you,        get off of  my      cloud!
         (hey             you)

G|------- ------- ------- -------|------- ------- ------- -------|
D|-------------------------------|-------------------------------|
A|-------------------------------|-------------------------------|
E|10--10--10--10--10--10---------|7---7---7---7---7---7---7---5--|
  Don't hang around, 'cause       two's   a   crowd on my cloud, baby.
fade out...

Please e-mail me for any corrections, or write a comment.
            

comments powered by Disqus
↑ Back to top | Rolling Stones Bass for Get Off My Cloud. Lyrics for acoustic guitar and electric guitar. Tablatures and chords are parodies/interpretations of the original songs. You may use it for private study, scholarship, research or language learning purposes only