» » »

Fingerprint File Bass tabs (ver.1)

Artists:  A B C D E F G H I J K L M N O P Q R S T U V W X Y Z # 

Fingerprint File Bass tabs (ver.1)

Rolling Stones
Rating:
0/5 (0 votes)

Hard to play? Try these video lessons and learn fast.
                One of my favorite bass riffs...great for jamming too...

Rolling Stones
Fingerprint File

Main riff:

-----3---5-8-5---------3---5-3-4-5--------|
---5---5-------8-5---5---5----------------|
-3-----------------3----------------------|
------------------------------------------|


Variation 1:

-----3---5-8-5-----10-8--------------|
---5---5-------8-5------8-10---------|
-3---------------------------8-10----|
-------------------------------------|


Variation 2:

-----3---5-8-5-----13-14-15-10-10-8-----------|
---5---5-------8-5------------------8-10-8-10-|
-3--------------------------------------------|
----------------------------------------------|


Chorus is this main riff that sits on G and then Gb between riffs
            
Hard to play? Try these video lessons and learn fast. | Correct




comments powered by Disqus
↑ Back to top | Tablatures and chords are parodies/interpretations of the original songs. You may use it for private study, scholarship, research or language learning purposes only