» » »

Rolling Stones, Fingerprint File Tabs (ver.1)

Artists:  A B C D E F G H I J K L M N O P Q R S T U V W X Y Z # 

Fingerprint File Tabs (ver.1)

Rolling Stones Tabs
Rating:
0/5 (0 votes)
Fingerprint File lessons Tabs too difficult? Try these video lessons and learn fast
                -------------------------------------------------------------------------------
                     FINGERPRINT FILE - The Rolling Stones
-------------------------------------------------------------------------------

Tuning: Standard

Note:
For the guitar effect used, I get something close with a slow phaser and wah pedal.



[PART 1]
 Variations on Cm with hammers from the "Bb area": 
 (s3, s4, & s5 are staccato notes)

e|------------------x--3---------------------x-s3-x----------|
B|------------------x--4---------------------x-s4-x----------|
G|-------------3h5--x--5-------5-------3h5---x-s5-x----------|
D|-------------3h5--x----------5-------3h5---x-x--x----------|
A|-------------3----x----------3-------3-----x-x--x----------|
E|-----------------------------------------------------------|
   Fingerprint file        you get me  down 
       Keep me running         know my way around 




[PART 2]
 Change in verses goes up to F7 and then back to PART 1:

e|---------5-----------------------------|
B|---------4-----------------------------|
G|---------5-----------------------------|
D|---------3-----------------------------|
A|---------------------------------------|
E|---------------------------------------|
   Know my moves, way ahead of time




[PART 3]
 G -> F#

e|-------------3-----------------------------------------------------|
B|-------------3-----------------------------------------------------|
G|-------------4-----------------------------------------------------|
D|-------------5-----------------------------------------------------|
A|-------------5-----------------------------------------------------|
E|-------------3-----------------------------------------------------|
   And there's some little jerk in the FBI 

e|-2-----------------------------------------------------------------|
B|-2-----------------------------------------------------------------|
G|-3-----------------------------------------------------------------|
D|-4-----------------------------------------------------------------|
A|-4-----------------------------------------------------------------|
E|-2-----------------------------------------------------------------|
   Keepin' papers on me six feet high     It gets me down, it gets me (back to PART 1 for "down").





At around 2:33 on the album version there is a breakdown/jam led by the bass.

[BASS]
 Main bass line:

G|-------------------------------------------|
D|-----------1-------------------------------|
A|-----1---3---3-1----------1---3--1h3-3-----|
E|-1-3---3---------3----1-3---3--------------|


There are a lot of gratuitous uses of wah with a crisp high chord that's simply:

                                   - / -   ( - = wah pushed forward, / = wah rocked back )
e|---------------------------------8-8-8-----|
B|---------------------------------8-8-8-----|
G|---------------------------------8-8-8-----|
D|-------------------------------------------|
A|-------------------------------------------|
E|-------------------------------------------|
            
Submit corrections

comments powered by Disqus
↑ Back to top | Rolling Stones Tabs for Fingerprint File. Lyrics for acoustic guitar and electric guitar. Tablatures and chords are parodies/interpretations of the original songs. You may use it for private study, scholarship, research or language learning purposes only