>
 >
Down The Road A Piece

Down The Road A Piece Bass Tabs

Rolling Stones - Down The Road A Piece chords, tabs, tablatures, lyrics

Guitar lessons | Add/correct | Request | Top 50 tabs Artists:  A B C D E F G H I J K L M N O P Q R S T U V W X Y Z 0-9

Down The Road A Piece Bass Tabs – Rolling Stones

CD, Sheet music, Poster

Do you like Down The Road A Piece? Share with your friends now
Bass Tabs
Down The Road A Piece
The Rolling Stones
Written by Don Raye; released on the album "The Rolling Stones No. 2".

Intro:
G|------ ------ ------ ------|------ ------ ------ ------|
D|---------------------------|---------------------------|
A|---------------------------|---------------------------|
E|--------------5---5--5-----|--------------5---5--5-----|



G|------ ------ ------ ------|------ ------ ------ ------ ------|
D|---------------------------|----------------------------------|
A|---------------------------|----------------------------7-----|
E|---------------------------|----------------------------------|



G|------ ------ ------ ------|------ 4----- ------ ------|
D|--------------7---7--------|-----------7--7---7--4-----|
A|5---5--8---9---------9-----|5--------------------------|
E|---------------------------|---------------------------|



G|------ ------ ------ ------|------ ------ ------ ------|
D|---------------------4-----|7---7--4---4---------------|
A|-------4------7------------|--------------7------5---5-|
E|5--------------------------|---------------------------|



G|------ 6----- ------ ------|------ ------ ------ ------|
D|--------------9---9--6---9-|--------------9---9--------|
A|7--------------------------|7---7--10--11--------10--11|
E|---------------------------|---------------------------|



G|------ ------ ------ ------|------ ------ ------ ------|
D|7--------------------------|---------------------------|
A|-------10-----9------8-----|7------5------4------------|
E|---------------------------|---------------------7---7-|
                                                Now if you

Verse:
G|------ ------ ------ ------|------ ------ ------ ------|
D|---------------------4---7-|----7--4-------------------|
A|-------4------7------------|--------------7------4-----|
E|5--------------------------|---------------------------|
  wanna  hear   boogie like I'm   gonna  play,         it's
             some

G|------ ------ ------ ------|------ ------ ------ ------|
D|-------4-------------4---7-|----7--4-------------------|
A|--------------7------------|--------------7------4-----|
E|5--------------------------|---------------------------|
  just   old pia -  no and a  knockout   bass,         The
      an

G|------ 4----- ------ ------|------ ------ 5----- 4-----|
D|--------------7------4-----|-------4---7---------------|
A|5--------------------------|5--------------------------|
E|---------------------------|---------------------------|
  drummer man's cat    call   Charlie McCoy,
             a      they

G|------ ------ ------ ------|------ ------ ------ ------|
D|7------4-------------------|--------------5------4-----|
A|--------------7------4-----|-------4---7---------------|
E|---------------------------|5--------------------------|
     you know, remember that rubber-legged boy.


G|------ ------ ------ ------|------ 6----- ------ ------|
D|--------------9---9--------|-----------9--9---9--6-----|
A|7---7--10--11--------11----|7--------------------------|
E|---------------------------|---------------------------|
  Ma- ma cooking       fried and  bacon  grease,       come
                chicken

G|------ 9----- 7----- ------|------ ------ ------ ------|
D|7--------------------10----|7--------------------------|
A|---------------------------|-------9------7------9-----|
E|---------------------------|---------------------------|
  on  a- long,  boys   it's just down the road a piece!

Break (solo):
G|------ 9----- 7----- ------|------ ------ ------ ------|
D|7--------------------10----|7--------------------------|
A|---------------------------|-------9------7------9-----|
E|---------------------------|---------------------------|



G|----5- ------ 5----- ----5-|----5- 4----- ------ ------|
D|7----------7---------7-----|--------------7------4-----|
A|---------------------------|---------------------------|
E|---------------------------|---------------------------|



G|------ ------ ------ ------|------ 4----- ------ ------|
D|-------4------7------4-----|-----------7--7---7--4---7-|
A|5--------------------------|5--------------------------|
E|---------------------------|---------------------------|



G|------ ------ ------ ------|------ ------ ------ ------|
D|---------------------4-----|7------4-------------------|
A|-------4------7------------|--------------7------4---5-|
E|5--------------------------|---------------------------|



G|------ ------ ------ ------|------ 6----- ------ ------|
D|--------------9------------|-----------9--9---9--6-----|
A|7------10--11--------11----|7--------------------------|
E|---------------------------|---------------------------|



G|------ ------ ------ ------|------ ------ ------ ------|
D|7--------------------------|7------9------10-----9-----|
A|-------9------7------9-----|---------------------------|
E|---------------------------|---------------------------|
                                                Well,  there's

Verse:
G|------ ------ ------ ------|------ ------ ------ ------|
D|-------7------4------------|--------------5------4-----|
A|---------------------7-----|-------4---7---------------|
E|5--------------------------|5--------------------------|
             a  place  really get your   kicks,        it's
                    you

G|------ ------ ------ ------|------ ------ ------ ------|
D|7--------------------------|7------9------10-----7-----|
A|-------9------7------9-----|---------------------------|
E|---------------------------|---------------------------|
  o- pen every  night about   twelve to  six,   Now if you


G|------ ------ ------ ------|------ 4----- ------ ------|
D|--------------7------------|-----------7--7---7--4-----|
A|5------8---9---------9-----|5--------------------------|
E|---------------------------|---------------------------|
  wanna  hear   boogie, you   get your   bill,         and
             some          can

G|------ 9----- 7---7- ------|------ ------ ------ ------|
D|7--------------------10--10|7--------------------------|
A|---------------------------|-------9------7------------|
E|---------------------------|---------------------9---7-|
  shove and  sting     like an old steam drill.


G|------ 6----- ------ ------|------ ------ ------ ------|
D|--------------9------6-----|--------------9------------|
A|7--------------------------|7------10--11--------11----|
E|---------------------------|---------------------------|
      Come on along,   you    lose your  lead,     down the
                           can

G|------ ------ ------ ------|------ ------ ------ 9-----|
D|7--------------------------|---------------------------|
A|-------10-----9------8-----|7--------------------------|
E|---------------------------|-------10-----9------------|
  road,  down   road,  down   road   a   piece!
             the           the
Break (solo):
G|------ ------ ------ ------|------ ------ ------ ------|
D|7---7--4------5------------|---------------------------|
A|---------------------7-----|-------4---4--7------4-----|
E|---------------------------|5--------------------------|



G|------ ------ ------ ------|------ ------ ------ ------|
D|-------7---4--5------------|---------------------------|
A|---------------------7-----|-------2------3------4-----|
E|5--------------------------|5--------------------------|



G|----7- 5----- 4----- ------|----7- 5----- 4----- ------|
D|---------------------7-----|---------------------7-----|
A|5--------------------------|5--------------------------|
E|---------------------------|---------------------------|



G|------ ------ ------ ------|------ ------ ------ ------|
D|7------------------------7-|-------9------10-----------|
A|-------9------7------9-----|---------------------------|
E|---------------------------|---------------------------|



G|------ 6----- ------ ------|------ ------ ------ ------|
D|--------------9------6-----|--------------9------------|
A|7--------------------------|7------10--11--------11----|
E|---------------------------|---------------------------|



G|------ ------ ------ ------|------ ------ ------ ------|
D|7--------------------------|---------------------------|
A|-------10-----9------8-----|7------5------4------------|
E|---------------------------|---------------------7-----|
                                                Well,  there's

Verse:
G|------ ------ ------ ------|------ ------ ------ ------|
D|--------------5------4-----|7--------------------------|
A|-------4---7---------------|-------9------7---7--9-----|
E|5--------------------------|---------------------------|
             a  place  really get your   kicks,        it's
                    you

G|------ ------ ------ ------|------ 4----- 5----- 4-----|
D|7--------------------------|7--------------------------|
A|-------9------7------9-----|---------------------------|
E|---------------------------|---------------------------|
  o- pen every  night about   twelve to  six,   Now if you


G|------ 4----- ------ ------|------ ------ 5---5- 4-----|
D|--------------7------4-----|-------4---7---------------|
A|5--------------------------|5--------------------------|
E|---------------------------|---------------------------|
  wanna  hear   boogie, you   get your   bill,         and
             some          can

G|------ ------ ------ ------|------ ------ ------ ------|
D|7------4-------------------|--------------5---5--4-----|
A|--------------7------4-----|-------4---7---------------|
E|---------------------------|5---5----------------------|
  shove and  sting     like an old steam drill.


G|------ 6----- ------ ------|------ ------ 7----- 6-----|
D|-----------9--9---9--6-----|-------6---9---------------|
A|7--------------------------|7--------------------------|
E|---------------------------|---------------------------|
      Come on along,   you    lose your  lead,     down the
                           can

G|------ ------ ------ ------|------ ------ ------ ------|
D|7--------------------------|7---7----------------------|
A|-------9------7------9-----|-------9------7------9-----|
E|---------------------------|---------------------------|
  road,  down   road,  down   road   a   piece!
             the           the
Outro:
G|----9- ------ 9----- ----9-|------ 9----- ----9- ------|
D|7----------7---------7-----|----7---------7----------7-|
A|---------------------------|---------------------------|
E|---------------------------|---------------------------|



G|9----- ----9- ------ 9-----|12---- 11---- 9---9- 11----|
D|-------7----------7--------|---------------------------|
A|---------------------------|---------------------------|
E|---------------------------|---------------------------|



G|7----- ------ ------ ------|------ ------ ------ ------|
D|-------9---9--7---7--------|-----------7--10--10-10----|
A|---------------------9-----|-------9-------------------|
E|---------------------------|10--10---------------------|



G|------ 9----- 7----- ------|------ ------ ------ ------|
D|7--------------------10----|7---7----------------------|
A|---------------------------|-------9------7---7--------|
E|---------------------------|---------------------9-----|



G|------ ------ ------ ------|------ ------ ------ ------|
D|--------------9---9--------|-------9---7--7---7--------|
A|7------10--11--------11----|---------------------9-----|
E|---------------------------|10-------------------------|



G|------ ------ ------ ------|------ ------ ------ ------|
D|7-----------------4--5---5-|7---7----------------------|
A|--------------7------------|-------9------7------------|
E|-------5-------------------|---------------------------|



G|------ ------ ------ ------|------ ------ ------ ------|
D|----7---------5------------|-------7---5--5---5--------|
A|---------------------7-----|---------------------7-----|
E|5------------------------5-|5--------------------------|



G|------ ------ ------ ------|------ ------ ------ ------|
D|----7--7---5--5------------|----7---------5------------|
A|---------------------7-----|---------------------7-----|
E|5--------------------------|5--------------------------|



G|------ 7---5- 5---5- ------|------ 7---5- 5---5- ------|
D|---------------------7-----|---------------------7-----|
A|5--------------------------|5--------------------------|
E|---------------------------|---------------------------|



G|------ ------ ------ ------|------ ------ ------ ------|
D|----7------5------5--------|--------------5------4-----|
A|---------------------7-----|-------4---7---------------|
E|5--------------------------|5--------------------------|



G|------ ------ ------ ------|------ ------ ------ ------|
D|-------5---6--9------6-----|-------5---6--9------6-----|
A|7--------------------------|7---7----------------------|
E|---------------------------|---------------------------|



G|------ ------ ------ ------|------ ------ ------ ------|
D|7--------------------------|7--------------------------|
A|-------9---9--7------9-----|-------9------7------9-----|
E|---------------------------|---------------------------|



G|----9- ------ 9----- 7---9-|----7- 9----- 7---9- ----7-|
D|7----------7---------------|---------------------------|
A|---------------------------|---------------------------|
E|---------------------------|---------------------------|



G|9----- ----9- ------ 9-----|12--12 11---- 9----- 9-----|
D|-------7----------7--------|---------------------------|
A|---------------------------|---------------------------|
E|---------------------------|---------------------------|



G|7----- ------ ------ ------|7---7- 9---7- 9---7- 9-----|
D|-------9---7--7------9-----|---------------------------|
A|---------------------------|---------------------------|
E|---------------------------|---------------------------|



G|------ ------ ------ ------|------ ------ 9---9- ------|
D|7--------------------------|7---7--10--10--------11----|
A|-------9------7------9-----|---------------------------|
E|---------------------------|---------------------------|



G|9----- 9----- ------ ------|------ 4----- ------ ------|
D|-----------11-9------6-----|-----------7--7---7--4-----|
A|---------------------------|5--------------------------|
E|---------------------------|---------------------------|



G|------ ------ ------ ------|------ ------ ------ ------|
D|7--------------------------|---------------------------|
A|-------10-----9------8-----|7------5------4------------|
E|---------------------------|---------------------7-----|



G|------ ------ ------ ------|------ ------ ------ ------|
D|7---7--7---7--7---7--7---7-|7---7--7---7--7---7--7---7-|
A|---------------------------|---------------------------|
E|---------------------------|---------------------------|



G|------ ------ ------ ------|------ ------ ------ ------|
D|7---7--7---7--7---7--7---7-|7---7--7---7--7---7--7-----|
A|---------------------------|---------------------------|
E|---------------------------|---------------------------|



G|7---7- 7---7- 7---7- 7---7-|7---7- 7---7- 7---7- 7---7-|
D|---------------------------|---------------------------|
A|---------------------------|---------------------------|
E|---------------------------|---------------------------|



G|------ ------ ------ ------|------ ------ ------ ------|
D|7---7--7---7--7---7--7---7-|7---7--7---7--7---7--7-----|
A|---------------------------|---------------------------|
E|---------------------------|---------------------------|



G|------ ------ ------ ------|------ ------ ------ ------|
D|-------4------5------4-----|-------5---6--9---9--6-----|
A|7--------------------------|7--------------------------|
E|---------------------------|---------------------------|



G|------ ------ ------ ------|------ ------ ------ ------|
D|7--------------------------|---------------------------|
A|-------10-----9------8-----|7------5------4------------|
E|---------------------------|---------------------7---7-|



G|------ ------ ------ ------|------ ------ ------ ------|
D|-------7------5------------|---------------------------|
A|---------------------7-----|-------4---4--7---7--4-----|
E|5------------------------5-|5---5----------------------|



G|------ ------ ------ ------|------ ------ ------ ------|
D|-------7---5--5------------|--------------5------4-----|
A|---------------------7-----|-------4---7---------------|
E|5--------------------------|5--------------------------|



G|------ 4----- ------ ------|------ ------ ------ ------|
D|--------------7------4-----|--------------7------------|
A|5--------------------------|5------8---9---------9-----|
E|---------------------------|---------------------------|
fade out...

Please e-mail me for any corrections, or write a comment.





Comments


Popular Rolling Stones tabs & chords
As Tears Go By Chords
Doom And Gloom Chords
Eileen Chords
Loving Cup 3 Chords
Melody Chords
Shine A Light 1 Chords
Stupid Girl Chords
Anybody Seen My Baby' Tabs
Jumpin' Jack Flash 2 Tabs
She Saw Me Coming Intro Tabs


Song lyrics



↑ Back to top | Tablatures and chords are parodies/interpretations of the original songs. You may use it for private study, scholarship, research or language learning purposes only
© 2014 AZChords.com Contact us | Privacy policy | DMCA | Add/correct tabs | Request tabs | Top 50 tabs