» » »

Don't Stop Bass tabs (ver.1)

Artists:  A B C D E F G H I J K L M N O P Q R S T U V W X Y Z # 

Don't Stop Bass tabs (ver.1)

Rolling Stones
Rating:
0/5 (0 votes)

Hard to play? Try these video lessons and learn fast.
                "Hello guys, i'm back!!! Take play this tab from the Rock and Roll dinosaurs:
Mick Jagger and Keith Richards

Intro/verses/chorus (repeat many times):

G|--------------------------------------------------------------------------|
D|-------------------------------------12-12-12-12-12-12-12-12-12-12-12-12--|
A|-12-12-12-12-12-12-12-12-12-12-12-12--------------------------------------|
E|--------------------------------------------------------------------------|

G|----------------|
D|----------------|
A|----9-10-11-12--|
E|-12-------------|

Bridge I (x2):

G|---------------------------------------------------------------------------|
D|-------------------------------------14-14-14-14-14-14-14-14-14-14-14-14---|
A|-12-12-12-12-12-12-12-12-12-12-12-12---------------------------------------|
E|---------------------------------------------------------------------------|

Coming up, play intro/verses/chorus some times more. Then pay this:

Bridge II:

G|--------------------------------------------------------------|
D|-------------------------12-12-12-12-12-12-12-12-12-12-12-12--|
A|-9-9-9-9-9-9-9-9-9-9-9-9--------------------------------------|
E|--------------------------------------------------------------|

G|---------------------------------------------------|
D|---------------------------------------------------|
A|-9-9-9-9-9-9-9-9-9-9-9-9--7-7-7-7-7-7-7-7-7-7-7-7--|
E|---------------------------------------------------|

G|--------------------------------------------------------------------------------------|
D|-9-9-9-9-9-9-9-9-9-9-9-9-------------------------12-12-12-12-12-12-12-12-12-12-12-12--|
A|-------------------------9-9-9-9-9-9-9-9-9-9-9-9--------------------------------------|
E|--------------------------------------------------------------------------------------|

G|-------------------------7-7-7-7-7-7-7-7-7---|
D|---------------------------------------------|
A|-7-7-7-7-7-7-7-7-7-7-7-7---------------------|
E|---------------------------------------------|

Intro/verses/chorus (fading out)

Thats all, folks! It's rasy, isn't it? Litsen the song every times as could
be necessary for to follow the rythm and the song secuence.
Greetings from Caracas, Venezuela. See you next time. Nos veremos en otra
oportunidad y que Dios me los guarde.
"            
Hard to play? Try these video lessons and learn fast. | Correct




comments powered by Disqus
↑ Back to top | Tablatures and chords are parodies/interpretations of the original songs. You may use it for private study, scholarship, research or language learning purposes only