» » »

Rolling Stones, Don Stop Tabs (ver.1)

Artists:  A B C D E F G H I J K L M N O P Q R S T U V W X Y Z # 

Don Stop Tabs (ver.1)

Rolling Stones Tabs
Rating:
0/5 (0 votes)
Don	 Stop lessons Tabs too difficult? Try these video lessons and learn fast
                Rolling Stones - Don't Stop


anything else is wrong, if u watch them play this you will see it is right


Solo:

-----------|-----------------|-------------------------|---------------|--------------
-----------|-----------------|-------------------------|---------------|--------------
---------9-|-11-11-11p9------|-9h11-9-------9----------|---------------|--------------
----9h11---|------------11-9-|--------11-9----[9h]11-9-|-9-9-9---------|-9h11-9-------
-----------|-----------------|-------------------------|-------12-9-12-|--------12----
-----------|-----------------|-------------------------|---------------|-----------12-



-----------|-----------------|-------------------------|---------------|--------------|
-----------|-----------------|-------------------------|---------------|--------------|
-----------|-11-11-11p9------|-9h11-9-------9----------|---------------|--------------|
---------9-|------------11-9-|--------11-9----[9h]11-9-|-9-9-9---------|-9h11-9-------|
-12-9h11---|-----------------|-------------------------|-------12-9-12-|--------12----|
-----------|-----------------|-------------------------|---------------|-----------12-|


[] not sure
h  hammer on

easier to play: 9h11p9 instead of 9h11-9
            

comments powered by Disqus
↑ Back to top | Rolling Stones Tabs for Don Stop. Lyrics for acoustic guitar and electric guitar. Tablatures and chords are parodies/interpretations of the original songs. You may use it for private study, scholarship, research or language learning purposes only