» » »

Can't You Hear Me Knocking Bass tabs (ver.1)

Artists:  A B C D E F G H I J K L M N O P Q R S T U V W X Y Z # 

Can't You Hear Me Knocking Bass tabs (ver.1)

Rolling Stones
Rating:
0/5 (0 votes)

Hard to play? Try these video lessons and learn fast.
                -------------------------------------------------------------------------------
                             Can't you hear me knocking - Rolling Stones
-------------------------------------------------------------------------------

( Intro )
  guitar lick-
G|--------------------|-------------|-----------|------------|------------|-------------|
D|--------------------|-------------|-----------|------------|------------|-------------|
A|--------------------|-5-5---5-5---|5-5---5-5--|-5-5---5-5--|-5-5---5-5--|-3-3---3-3---|
E|--------------------|----5-----55-|---5-----55|----5-----55|----5-----55|----3-----33-|
  Satin Shoes
G|------------|------------|------------|------------|------------|------------|------------|
D|------------|------------|-5--5-------|------------|------------|------------|-5--5-------|
A|-5-5---5-5--|-3-3---3-3--|------5-55-4|-3-3---3-3--|-5-5---5-5--|-3-3---3-3--|------5-55-4|
E|----5-----55|----3-----33|------------|----3-----33|----5-----55|----3-----33|------------|

  Can't you hear me knockin
G|------------|------------|-------------|------------|------------|------------|
D|------------|------------|-------------|-5--5-------|------------|------------|
A|-3-3---3-3--|-5-5---5-5--|-3-3----3-3--|------5-55-4|-3-3---3-3--|-5-5---5-5--|
E|----3-----33|----5-----55|----3------33|------------|----3-----33|----5-----55|

               Hear me baby, ain't no stranger
G|------------|----------------|----------------|----------------|--------|
D|------------|-5-5-3-3-----5-5|-5-5-3-3-----5-5|-5-5-3-3-----5-5|--------|
A|-3-3---3-3--|---------3-3----|---------3-3----|---------3-3----|--------|
E|----3-----33|----------------|----------------|----------------|--------|

   Can't you hear me knockin
G|------------|------------|-------------|------------|------------|------------|
D|------------|------------|-------------|-5--5-------|------------|------------|
A|-3-3---3-3--|-5-5---5-5--|-3-3----3-3--|------5-55-4|-3-3---3-3--|-5-5---5-5--|
E|----3-----33|----5-----55|----3------33|------------|----3-----33|----5-----55|

               Hear me ringin
G|------------|----------------|----------------|----------------|-----------------|
D|------------|-5-5-3-3-----5-5|-5-5-3-3-----5-5|-5-5-3-3-----5-5|-5-5-3-3-----5-5-|
A|-3-3---3-3--|---------3-3----|---------3-3----|---------3-3----|---------3-3-----|
E|----3-----33|----------------|----------------|----------------|-----------------|

  Hear me prowlin
G|----------------|----------------|----------------|-----------------|
D|-5-5-3-3-----5-5|-5-5-3-3-----5-5|-5-5-3-3-----5-5|-5-5-3-3-----5-5-|
A|---------3-3----|---------3-3----|---------3-3----|---------3-3-----|
E|----------------|----------------|----------------|-----------------|

  interlude ( bongos, guitar etc )
G|---------------|---------------|----------------|---------------|---------------|
D|---------------|---------------|----------------|---------------|---------------|
A|---------------|---------------|----------------|---------------|---------------|
E|---------------|---------------|----------------|---------------|---------------|

 ( Outro )
  ( repeat numerous times with variations and fills eventually ending abruptly )
G|----------------------|------------|-----------|------------|------------------|
D|-5-h7-----------5-h7--|------------|-5-h7------|------------|-5-h7-------------|
A|-----5--------------5-|-5-55-5-55-5|-----5-55-5|-5-55-5-55-5|------5-55-5-55-5-|
E|----------------------|------------|-----------|------------|------------------|
            
Hard to play? Try these video lessons and learn fast. | Correct




comments powered by Disqus
↑ Back to top | Tablatures and chords are parodies/interpretations of the original songs. You may use it for private study, scholarship, research or language learning purposes only