» » »

Rolling Stones, Brown Sugar Bass tabs (ver.6)

Artists:  A B C D E F G H I J K L M N O P Q R S T U V W X Y Z # 

Brown Sugar Bass tabs (ver.6)

Rolling Stones Tabs
 Rating:
4/5 (4 votes)
Brown Sugar lessons Tabs too difficult? Try these video lessons and learn fast
                ---------------------------------------------------------------------------
			 BROWN SUGAR - Rolling Stones
---------------------------------------------------------------------------


Tuning:Standard

This is pretty accurate to the core song but the original varies through 
improvisation a bit. This will sound good though. Listen to the original and you will hear more. 


Intro
G|----|------------------------------|
D|----|------------------------------|
A|----|------------------------------| X 3
E|----|-3-3-3-3-3-3-3--8-8-8-8-8-8-8-|

G|------------------------------------------------------------|
D|------------------2-2-3-3-5-6-6--8-8--10-10-10-10--10-9-----| X2
A|-6-6-8-6-8-6--3-3------------6----8--------------------10---|
E|------------------------------------------------------------|

Verse
|------------------------------------------------------------------|
|------------------------------------------------------------------|
|-----------------------------------8-8-8-8--8-8-8-8--8-10-8-10-8--|
|-8--8-8-8--8-8-8-8--8-8-8-8--8-8-10-----------------------------10|

|-----------------------------------------------------------------|
|------------------------------------8-8-8-8--8--8-10-10-10-10----|
|----------------------------------------------10-----------------|
|-8-8-8-8--8-8-8-8--8-8-8-8--8-8-8-8------------------------------|

|-----------------------------------------------------------------|
|-10-8------------------------------------------------------------|
|-----10--10-10-10-8----10-10-10-8-----3-3---3----3-3---3---------|
|-------------------10-------------10-----5-3-5-3----5-3-6-3------|

|-----------------------------------------------------------------|
|-----------------------------------------------------------------|
|-10-10-10-8----10-10-10-8-----3-3---3----3-3---3-----------------|
|-----------10-------------10-----5-3-5-3----5-3-6-3--------------|

G|------------------------------------------------------------|
D|------------------2-2-3-3-5-6-6--8-8--10-10-10-10--10-9-----| X2
A|-6-6-8-6-8-6--3-3------------6----8--------------------10---|
E|------------------------------------------------------------|

Repeat for other verses

Outro

|---------------------------------------------------------|
|---------------------------------------------------------|
|-10-10-10-8----10-10-10-8-----3-3---3----3-3---3---------| x4
|-----------10-------------10-----5-3-5-3----5-3-6-3------|

|---------------------------------------------------------------|
|-----------------------8-7--10-10-----10------10-10-----10-----|x4+-
|10-10-10-8----10-10-10-----------12-10--12-10------12-10--12-10|
|----------10---------------------------------------------------|
            
Submit corrections

comments powered by Disqus
↑ Back to top | Rolling Stones Bass for Brown Sugar. Lyrics for acoustic guitar and electric guitar. Tablatures and chords are parodies/interpretations of the original songs. You may use it for private study, scholarship, research or language learning purposes only