» » »

Rolling Stones, Brown Sugar Bass tabs (ver.5)

Artists:  A B C D E F G H I J K L M N O P Q R S T U V W X Y Z # 

Brown Sugar Bass tabs (ver.5)

Rolling Stones Tabs
 Rating:
4/5 (4 votes)
Brown Sugar lessons Tabs too difficult? Try these video lessons and learn fast
1
                It was hard to hear exactly what Bill Wyman was doing here since the
original recording is a bit mushy but I tried to transcribe a bass
line consistent with his style.


Tuning: EADG

Time signature: 4/4

r = rest (listen for duration)
||= measure gets repeated (see number of times above measure, e.g. 4x)


*My tabs are meant to be read in conjunction with listening to the song.
In other words, there are no specific notations to account for note/rest duration. 
However, you will find that I've made an attempt to strategically space the notes 
and rests within their respective measures in order to represent the appropriate 
durations.


 INTRO

G|--------|------------------------|--------------------------------|
D|--------|r-----------------------|r-------------------------------|
A|--------|------------------------|--------------------------------|
E|--------|------------------------|--------------------------------|


  3x
||--------------------------------|--------------------------------||
||5---5---5---5---5---5---5---5---|--------------------------------||
||--------------------------------|3---3---3---3---3---3---3---5---||
||--------------------------------|--------------------------------||


  2x
||--------------------------------|--------------------------------|
||--------------------------------|------------3-------3-----------|
||6-------6---8---6---8---6---r---|3-------3-------3-------3---r---|
||--------------------------------|--------------------------------|


                 
|--------------------------------|----------------------------------||
|--------------------------------|----------------------------------||
|--------------------6-----------|---------------------8---9---10---||
|4-------6---4---r-------6---r---|8-------8---8---10----------------||



VERSE

|--------------------------------|--------------------------------|
|--------------------------------|--------------------------------|
|3---3---3---0---3---3---3---0---|3---3---3---0---3---3---3---0---|
|--------------------------------|--------------------------------|



|--------------------------------|--------------------------------|
|3---3---3---0---3---3---3---0---|3---3---3---0---3---0---3---0---|
|--------------------------------|--------------------------------|
|--------------------------------|--------------------------------|



|--------------------------------|--------------------------------|
|--------------------------------|--------------------------------|
|3---3---3---0---3---3---3---0---|3---3---3---0---3---3---3---0---|
|--------------------------------|--------------------------------|



|--------------------------------|--------------------------------|
|--------------------------------|--------------------------------|
|1---1---1---1---1-------1-------|3---3---3---3---3---3---3---3---|
|--------------------3-----------|--------------------------------|



CHORUS

  2x
||--------------------------------|--------------------------------|
||----------------------------5---|----0---5-------5---3-----------|
||--------------------2---5-------|------------------------5-------|
||3-------3-------3---------------|--------------------------------|



|--------------------------------|--------------------------------||
|--------------------------------|--------------------------------||
|3---3-----------3---3-----------|3---3-----------3---3-----------||
|--------5---3-----------3---5---|--------5---3-----------3---5---||



BRIDGE

|--------------------------------|--------------------------------|
|--------------------------------|------------3-------3---4---5---|
|6-------6---8---6---8---6---r---|3-------3-------3---------------|
|--------------------------------|--------------------------------|



|--------------------------------|------------------------------------------|
|6-----------6---8-----------8---|10-------10---10---10---10---8------------|
|--------6---------------8-------|---------------------------------10-------|
|--------------------------------|------------------------------------------|



(CHORUS)



SOLO

|--------------------------------|--------------------------------|
|--------------------------------|------------3-------3---4---5---|
|6-------6---8---6---8---6---r---|3-------3-------3---------------|
|--------------------------------|--------------------------------|



|--------------------------------|------------------------------------------|
|6-----------6---8-----------8---|10-------10---10---10---10---8------------|
|--------6---------------8-------|---------------------------------10-------|
|--------------------------------|------------------------------------------|



|--------------------------------|--------------------------------|
|--------------------------------|------------3-------3-----------|
|6-------6---8---6---8---6---r---|3-------3-------3-------3---r---|
|--------------------------------|--------------------------------|


                 
|--------------------------------|----------------------------------|
|--------------------------------|----------------------------------|
|--------------------6-----------|---------------------8---9---10---|
|4-------6---4---r-------6---r---|8-------8---8---10----------------|



|--------------------------------|--------------------------------|
|--------------------------------|------------3-------3---4---5---|
|6-------6---8---6---8---6---r---|3-------3-------3---------------|
|--------------------------------|--------------------------------|



|--------------------------------|-------------------------------------------|
|6-----------6---8-----------8---|10-------10---10---10---10---11---12-------|
|--------6---------------8-------|-------------------------------------------|
|--------------------------------|-------------------------------------------|



|--------------------------------|--------------------------------|
|--------------------------------|------------3-------3---4---5---|
|6-------6---8---6---8---6---r---|3-------3-------3---------------|
|--------------------------------|--------------------------------|



|--------------------------------|--------------------------------|
|6-----------6-------------------|------------------------3---5---|
|--------6-----------------------|3---r---3---3---3---5-----------|
|----------------6-------4---3---|--------------------------------|



(CHORUS)


(VERSE)


(CHORUS - 8X)



OUTRO

|--------------------------------|--------------------------------|
|----------------------------5---|----0---5-------5---3-----------|
|--------------------2---5-------|------------------------5-------|
|3-------3-------3---------------|--------------------------------|



|--------------------------------|--------------------------------|
|--------------------------------|--------------------------------|
|3---3-----------3---3-----------|3-----------3-------------------|
|--------5---3-----------3---5---|----5---3-----------------------|


              (PLEASE RATE THIS TAB / LEAVE COMMENT)                   
            
Submit corrections

comments powered by Disqus
↑ Back to top | Rolling Stones Bass for Brown Sugar. Lyrics for acoustic guitar and electric guitar. 1 Tablatures and chords are parodies/interpretations of the original songs. You may use it for private study, scholarship, research or language learning purposes only