>
 >
Brown Sugar 4

Brown Sugar 4 Bass Tabs

Rolling Stones - Brown Sugar 4 chords, tabs, tablatures, lyrics

Guitar lessons | Add/correct | Request | Top 50 tabs Artists:  A B C D E F G H I J K L M N O P Q R S T U V W X Y Z 0-9

Brown Sugar 4 Bass Tabs – Rolling Stones

CD, Sheet music, Poster

Do you like Brown Sugar 4? Share with your friends now
Bass TabsBass Tabs v2Bass Tabs v3Bass Tabs v4Bass Tabs v5Bass Tabs v6ChordsChords v2Chords v3Chords v4TabsTabs v2Tabs v3Tabs v4UkuleleUkulele v2
Band: Rolling Stones


     W                   W                   W                 
C||-------------------|-------------------|-------------------|
G||-------------------|-------------------|-------------------|
D||-------------------|-------------------|-------------------|
A||-------------------|-------------------|-------------------|
E||-------------------|-------------------|-------------------|
B||-------------------|-------------------|-------------------|


  E  E  E  E  E  E  E  E     E  E  E  E  E  E  E  E   
--------------------------|--------------------------|
--------------------------|--------------------------|
--5--5--5--5--5--5--5-----|--------------------3--5--|
-----------------------3--|--3--3--3--3--3--5--------|
--------------------------|--------------------------|
--------------------------|--------------------------|


  E  E  E  E  E  E  E  E     E  E  E  E  E  E  E  E   
--------------------------|--------------------------|
--------------------------|--------------------------|
--5--5--5--5--5--5--5-----|--------------------3--5--|
-----------------------3--|--3--3--3--3--3--5--------|
--------------------------|--------------------------|
--------------------------|--------------------------|


  E  E  E  E  E  E  E  E     E  E  E  E  E  E  E  E   
--------------------------|--------------------------|
--------------------------|--------------------------|
--5--5--5--5--5--5--5-----|--------------------------|
-----------------------3--|--3--3--3--3--3--5--3--3--|
--------------------------|--------------------------|
--------------------------|--------------------------|


  E  E  E  E  E  E  E  E     E  E  E  E  E  E  E  E   
--------------------------|--------------------------|
--------------------------|--------------------------|
--1--1--1--1--1--1--1-----|--------------------------|
-----------------------3--|--3--3--3--3--3--3--3-----|
--------------------------|-----------------------4--|
--------------------------|--------------------------|


  E  E  E  E  E  E  E  E     E  E  E  E  E  E  E  E   
--------------------------|--------------------------|
--------------------------|--------------------0-----|
--------------------------|--------2--2--3--3-----1--|
-----------1--1--1--1--3--|--3--3--------------------|
--4--4--4-----------------|--------------------------|
--------------------------|--------------------------|


  E  E  E  E  E  E  E  E     E  E  E  E  E  E  E  E   
--------------------------|--------------------------|
--------0--0--1--1--2-----|--------------------------|
--------------------------|--------------------------|
--6--6-----------------3--|--3--3--3--3--3--3--3-----|
--------------------------|-----------------------4--|
--------------------------|--------------------------|


  E  E  E  E  E  E  E  E     E  E  E  E  E  E  E  E   
--------------------------|-----------------------0--|
--------------------------|--------------------0-----|
--------------------------|--------2--2--3--3--------|
-----------1--1--1--1--3--|--3--3--------------------|
--4--4--4-----------------|--------------------------|
--------------------------|--------------------------|


    E  E  E  E  E  E  E  E     E  E  E  E  E  E  E  E   
|---------------------------|--------------------------|
|---------------------------|--------------------------|
|*--------------------------|-----------------------5--|
|*--3--3--3--3--3--3--3--3--|--3--3--3--3--3--3--3-----|
|---------------------------|--------------------------|
|---------------------------|--------------------------|


  E  E  E  E  E  E  E  E     E  E  E   E  E  E   E  E   
--------------------------|----------------------------|
--------------------------|----------------------------|
--3--3--3--3--3--3--3--3--|--3--2--3s--5--3--2s--5-----|
--------------------------|-------------------------3--|
--------------------------|----------------------------|
--------------------------|----------------------------|


  E  E  E  E  E  E  E  E     E  E  E  E  E  E  E  E   
--------------------------|--------------------------|
--------------------------|--------------------------|
--------------------------|--------------------------|
--3--3--3--3--3--3--3--3--|--3--3--3--3--3--3--3--3--|
--------------------------|--------------------------|
--------------------------|--------------------------|


  E  E  E  E  E  E  E  E     E  E  E  E  E  E  E  E   
--------------------------|--------------------------|
--3--3--3--3--3--3--3--3--|--5--5--5--5--5--5--5--0--|
--------------------------|--------------------------|
--------------------------|--------------------------|
--------------------------|--------------------------|
--------------------------|--------------------------|


  E  E  E  E  E  E  E  E     E  E  E  E  E  E   E  E   
--------------------------|---------------------------|
--------------------------|---------------------------|
--5--5--5--5--5--5--5--5--|--5--5--5--5--5--3s--1--0--|
--------------------------|---------------------------|
--------------------------|---------------------------|
--------------------------|---------------------------|


  E  E  E  E  E  E  E  E     E  E  E  E  E  E  E  E   
--------------------------|--------------------------|
--------------------------|--------------------------|
--------------------------|--------0--1--2--2--3--4--|
--3--3--3--3--3--3--3--3--|--3--3--------------------|
--------------------------|--------------------------|
--------------------------|--------------------------|


  E  E  E  E  E  E  E  E     E  E  E  E  E  E   E  E   
--------------------------|---------------------------|
--------------------------|---------------------------|
--5--5--5--5--5--5--5--5--|--5--5--5--5--5--3s--1--0--|
--------------------------|---------------------------|
--------------------------|---------------------------|
--------------------------|---------------------------|


  E  E  E  E  E  E  E  E     E  E  E  E  E  E  E  E   
--------------------------|--------------------------|
--------------------------|--------------------------|
--------------------------|--------------------------|
--3--3--3--3--3--3--3--3--|--3--3--3--3--3--3--3--3--|
--------------------------|--------------------------|
--------------------------|--------------------------|


  E  E  E  E  E  E  E  E     E  E  E  E  E  E  E  E   
--------------------------|--------------------------|
--------------------------|--------------------------|
--1--1--1--1--1--1--1--1--|-----------------------0--|
--------------------------|--3--3--3--3--3--3--4-----|
--------------------------|--------------------------|
--------------------------|--------------------------|


  E  E  E  E  E  E  E  E     E  E  E  E  E  E  E  E     
--------------------------|-----------------------0---||
--------------------------|--------------0--3--4------||
--------------------------|--------2--3--------------*||
--------------1--1--1--1--|--3--3--------------------*||
--4--4--4--4--------------|---------------------------||
--------------------------|---------------------------||


   E  E  E  E  E  E  E  E     E  E  E  E  E  E  E  E   
---------------------------|--------------------------|
---------------------------|-----------------------0--|
*--1--1--1--1--1--1--1--1--|--------2--2--3--3--4-----|
*--------------------------|--3--3--------------------|
---------------------------|--------------------------|
---------------------------|--------------------------|


  E  E  E  E  E  E  E  E     E  E  E  E  E  E  E  E   3x
--------------------------|--0--0--0--0--0------------||
--1--1--1--1--3--3--3--3--|-----------------3--0------||
--------------------------|-----------------------3--*||
--------------------------|--------------------------*||
--------------------------|---------------------------||
--------------------------|---------------------------||


  E  E  E  E  E  E  E  E     E  E  E  E  E  E  E  E   
--------------------------|--------------------------|
--------------------------|-----------------------0--|
--1--1--1--1--1--1--1--1--|--------2--2--3--3--4-----|
--------------------------|--3--3--------------------|
--------------------------|--------------------------|
--------------------------|--------------------------|


  E  E  E  E  E  E  E  E     E  E  E  E  Q    Q       E  E  E  E  E  E  E  E   
--------------------------|--0--0--0--0--0----0----|--------------------------|
--1--1--1--1--3--3--3--3--|------------------------|--------------------------|
--------------------------|------------------------|--------------------------|
--------------------------|------------------------|--3--3--3--3--3--3--3--3--|
--------------------------|------------------------|--------------------------|
--------------------------|------------------------|--------------------------|


  E  E  E  E  E  E  E  E     E  E  E  E  E  E  E  E   
--------------------------|--------------------------|
--------------------------|--------------------------|
-----------------------5--|--3--3--3--3--3--3--3--3--|
--3--3--3--3--3--3--3-----|--------------------------|
--------------------------|--------------------------|
--------------------------|--------------------------|


  E  E  E   E  E  E   E  E     E  E  E  E  E  E  E  E   
----------------------------|--------------------------|
----------------------------|--------------------------|
--3--2--3s--5--3--2s--5-----|--------------------------|
-------------------------3--|--3--3--3--3--3--3--3--3--|
----------------------------|--------------------------|
----------------------------|--------------------------|


  E  E  E  E  E  E  E  E     E  E  E  E  E  E  E  E   
--------------------------|--------------------------|
--------------------------|--3--3--3--3--3--3--3--3--|
--------------------------|--------------------------|
--3--3--3--3--3--3--3--3--|--------------------------|
--------------------------|--------------------------|
--------------------------|--------------------------|


  E  E  E  E  E  E  E  E     E  E  E  E  E  E  E  E   
--------------------------|--------------------------|
--5--5--5--5--5--5--5--0--|--------------------------|
--------------------------|--5--5--5--5--5--5--5--5--|
--------------------------|--------------------------|
--------------------------|--------------------------|
--------------------------|--------------------------|


  E  E  E  E  E  E   E  E     E  E  E  E  E  E  E  E   
---------------------------|--------------------------|
---------------------------|--------------------------|
--5--5--5--5--5--3s--1--0--|--------------------------|
---------------------------|--3--3--3--3--3--3--3--3--|
---------------------------|--------------------------|
---------------------------|--------------------------|


  E  E  E  E  E  E  E  E     E  E  E  E  E  E  E  E   
--------------------------|--------------------------|
--------------------------|--------------------------|
--------0--1--2--2--3--4--|--5--5--5--5--5--5--5--5--|
--3--3--------------------|--------------------------|
--------------------------|--------------------------|
--------------------------|--------------------------|


  E  E  E  E  E  E   E  E     E  E  E  E  E  E  E  E   
---------------------------|--------------------------|
---------------------------|--------------------------|
--5--5--5--5--5--3s--1--0--|--------------------------|
---------------------------|--3--3--3--3--3--3--3--3--|
---------------------------|--------------------------|
---------------------------|--------------------------|


  E  E  E  E  E  E  E  E     E  E  E  E  E  E  E  E   
--------------------------|--------------------------|
--------------------------|--------------------------|
--------------------------|--5--5--5--5--5--5--5--5--|
--3--3--3--3--3--3--3--3--|--------------------------|
--------------------------|--------------------------|
--------------------------|--------------------------|


  E  E  E  E  E  E   E  E     E  E  E  E  E  E  E  E   
---------------------------|--------------------------|
---------------------------|--------------------------|
--5--5--5--5--5--3s--1--0--|--------------------------|
---------------------------|--3--3--3--3--3--3--3--3--|
---------------------------|--------------------------|
---------------------------|--------------------------|


  E  E  E  E  E  E  E  E     E  E  E  E  E  E  E  E   
--------------------------|--------------------------|
--------------------------|--------------------------|
--------0--1--2--2--3--4--|--5--5--5--5--5--5--5--5--|
--3--3--------------------|--------------------------|
--------------------------|--------------------------|
--------------------------|--------------------------|


  E  E  E  E  E  E   E  E     E  E  E  E  E  E  E  E   
---------------------------|--------------------------|
---------------------------|--------------------------|
--5--5--5--5--5--3s--1--0--|--------------------------|
---------------------------|--3--3--3--3--3--3--3--3--|
---------------------------|--------------------------|
---------------------------|--------------------------|


  E  E  E  E  E  E  E  E     E  E  E  E  E  E  E  E   
--------------------------|--------------------------|
--------------------------|--------------------------|
--------------------------|--5--5--5--5--5--5--5--5--|
--3--3--3--3--3--3--3--3--|--------------------------|
--------------------------|--------------------------|
--------------------------|--------------------------|


  E  E  E  E  E  E   E  E     E  E  E  E  E  E  E  E   
---------------------------|--------------------------|
---------------------------|--------------------------|
--5--5--5--5--5--3s--1--0--|--------------------------|
---------------------------|--3--3--3--3--3--3--3--3--|
---------------------------|--------------------------|
---------------------------|--------------------------|


  E  E  E  E  E  E  E  E     E  E  E  E  E  E  E  E   
--------------------------|--------------------------|
--------------------------|--------------------------|
--------0--1--2--2--3--4--|--5--5--5--5--5--5--5--5--|
--3--3--------------------|--------------------------|
--------------------------|--------------------------|
--------------------------|--------------------------|


  E  E  E  E  E  E   E  E     E  E  E  E  E  E  E  E   
---------------------------|--------------------------|
---------------------------|--------------------------|
--5--5--5--5--5--3s--1--0--|--------------------------|
---------------------------|--3--3--3--3--3--3--3--3--|
---------------------------|--------------------------|
---------------------------|--------------------------|


  E  E  E  E  E  E  E  E     E  E  E  E  E  E  E  E   
--------------------------|--------------------------|
--------------------------|--------------------------|
--------------------------|--5--5--5--5--5--5--5--5--|
--3--3--3--3--3--3--3--3--|--------------------------|
--------------------------|--------------------------|
--------------------------|--------------------------|


  E  E  E  E  E  E   E  E     E  E  E  E  E  E  E  E   
---------------------------|--------------------------|
---------------------------|--------------------------|
--5--5--5--5--5--3s--1--0--|--------------------------|
---------------------------|--3--3--3--3--3--3--3--3--|
---------------------------|--------------------------|
---------------------------|--------------------------|


  E  E  E  E  E  E  E  E     E  E  E  E  E  E  E  E   
--------------------------|--------------------------|
--------------------------|--------------------------|
--------0--1--2--2--3--4--|--5--5--5--5--5--5--5--5--|
--3--3--------------------|--------------------------|
--------------------------|--------------------------|
--------------------------|--------------------------|


  E  E  E  E  E  E   E  E     E  E  E  E  E  E  E  E   
---------------------------|--------------------------|
---------------------------|--------------------------|
--5--5--5--5--5--3s--1--0--|--------------------------|
---------------------------|--3--3--3--3--3--3--3--3--|
---------------------------|--------------------------|
---------------------------|--------------------------|


  E  E  E  E  E  E  E  E    
--------------------------||
--------------------------||
--------------------------||
--3--3--3--3--3--3--3--3--||
--------------------------||
--------------------------||




Duration Legend
---------------
W - whole
H - half
Q - quarter
E - 8th
S - 16th
T - 32nd
X - 64th
. - note dotted
|-n-|  - n-tuplets


Tablature Legend
----------------
L - tied note
x - dead note
g - grace note
(n) - ghost note
> - accentuded note
NH - natural harmonic
AH - artificial harmonic
TH - tapped harmonic
SH - semi harmonic
PH - pitch harmonic
h - hammer on
p - pull off
b - bend
br - bendRelease
pb - preBend
pbr - preBendRelease
brb - bendReleaseBend
\n/ - tremolo bar dip
\n - tremolo bar dive
-/n - tremolo bar Release up
/n\ - tremolo bar inverted dip
/n - tremolo bar return
-\n - tremolo bar Release down
S - shift slide
s - legato slide
/ -  slide into from below or out of upwards
\ -  slide into from above or out of downwards
~ - vibrato
W - wide vibrato
tr - trill
TP - tremolo picking
T - tapping
S - slap
P - pop
< - fade in
^ - brush up
v - brush down





Comments


Popular Rolling Stones tabs & chords
Anybody Seen My Baby' 1 Bass Tabs
Sway Bass Tabs
It Wont Take Long 1 Chords
Memo From Turner Chords
Mothers Little Helper 3 Chords
Start Me Up 3 Chords
Sympathy For The Devil 1 Chords
Are You Already Over Me Ukulele
Cocksucker Blues Ukulele
Dandelion Ukulele


Song lyrics



↑ Back to top | Tablatures and chords are parodies/interpretations of the original songs. You may use it for private study, scholarship, research or language learning purposes only
© 2014 AZChords.com Contact us | Privacy policy | DMCA | Add/correct tabs | Request tabs | Top 50 tabs