>
 >
Brown Sugar

Brown Sugar Bass Tabs

Rolling Stones - Brown Sugar chords, tabs, tablatures, lyrics

Guitar lessons | Add/correct | Request | Top 50 tabs Artists:  A B C D E F G H I J K L M N O P Q R S T U V W X Y Z 0-9

Brown Sugar Bass Tabs – Rolling Stones

CD, Sheet music, Poster

Do you like Brown Sugar? Share with your friends now
Bass TabsBass Tabs v2Bass Tabs v3Bass Tabs v4Bass Tabs v5Bass Tabs v6ChordsChords v2Chords v3Chords v4TabsTabs v2Tabs v3Tabs v4UkuleleUkulele v2
Rolling Stones - Brown Sugar



        w     w     w     w      e  e  e  e  e  e  e  e     e  e  e     
G---||--r--|--r--|--r--|--r--||--------------------------|--------------
D---||--e--|--e--|--e--|--e--||--------------------------|--------1-----
A---||--s--|--s--|--s--|--s--||--------------------------|--3--3--------
E---||--t--|--t--|--t--|--t--||--3--3--3--3--3--3--3--3--|--------------
                                                                        

    e  e  e  e  e     e  e  e  e  e  e  e  e     e  e  e  e  e  e  e    
G------------------|--------------------------|-------------------------
D------------------|--------------------------|--------------1----------
A---3--3--3--3--3--|--------------------5-----|--3--3--3--3-----3--3----
E------------------|--3--3--3--3--3--3-----3--|-------------------------
                                                                        

    e     e  e  e  e  e  e  e  e     e  e  e  e  e  e  e  e     e  e    
G------|--------------------------|--------------------------|----------
D------|--------------------------|-----------------------0--|--1--1----
A---3--|--------1-----2-----------|--3--3--3--3--3--3--3-----|----------
E------|--3--3-----3-----3--3--3--|--------------------------|----------
                                                                        

    e  e  e  e  e  e     e  e  e  e  e  e  e  e     e  e  e  e  e  e    
G---------------------|--------------------------|----------------------
D---1--1--1--1--3--5--|--------------------1-----|----------------------
A---------------------|--3--3--3--3--3--3-----3--|--------------1--1----
E---------------------|--------------------------|--4--4--4--4----------
                                                                        

    e  e     e  e  e  e  e  e  e  e     e  e  e  e  e  e  e  e     e    
G---------|--------------------------|--------------------------|-------
D---------|-----------------0--1--0--|--1--1--1--1--1--1--3--5--|-------
A---3--5--|--3--3--3--3--3-----------|--------------------------|--3----
E---------|--------------------------|--------------------------|-------
                                                                        

    e  e  e  e  e  e  e     e  e  e  e  e  e  e  e     e  e  e  e  e    
G------------------------|--------------------------|-------------------
D------------------1-----|--------------------------|-------------------
A---3--3--3--3--3-----3--|--------------1--1--1--1--|--3--3--3--3--3----
E------------------------|--4--4--4--4--------------|-------------------
                                                                        

    e  e  e      e  e  e  e  e  e  e  e     e  e  e  e  e  e  e  e      
G------------||--------------------------|------------------------------
D------1-----||--------1-----2-----3--5--|--------1-----2-----5--3------
A---3-----3--||--3--3-----3-----3--------|--3--3-----3-----3------------
E------------||--------------------------|------------------------------
                                                                        

       e  e  e  e  e  e  e  e     e  e  e  e  e  e  e  e     e  e  e    
G---|--------------------------|--------------------------|-------------
D---|--------------------------|--------------------------|--------1----
A---|--------0-----1-----2--3--|--------0-----3-----0-----|--3--3-------
E---|--1--1-----1-----1--------|--1--1-----1-----1-----1--|-------------
                                                                        

    e  e  e  e  e     e  e  e  e  e  e  e  e     e  e  e  e  e  e  e    
G------------------|--------------------------|-------------------------
D------2-----3--5--|--------1-----2-----5--3--|--------0----------------
A---3-----3--------|--3--3-----3-----3--------|--1--1-----1--1--1--3----
E------------------|--------------------------|-------------------------
                                                                        

    e     e  e  e  e  e  e  e  e      e  e  e  e  e  e  e  e     e      
G------|--------------------------||--------------------------|---------
D------|--------1-----2-----5-----||--5--5-----------------5--|--5------
A---5--|--3--3-----3-----3-----3--||--------5-----------5-----|---------
E------|--------------------------||-----------3--3--3--------|---------
                                                                        

    e  e  e  e  e  e  e     e  e  e  e  e  e  e  e     e  e  e  e  e    
G------------------------|--------------------------|-------------------
D---5--------5--3--2-----|--------------------1--2--|-------------------
A------5--------------3--|--3--3--0-----3--3--------|--3--3--0-----3----
E---------3--------------|-----------3--------------|-----------3-------
                                                                        

    e  e  e     e  e  e  e  e  e  e  e     e  e  e  e  e  e  e  e       
G------------|--------------------------|--------------------------|----
D---2--3--4--|--5--5--------5--5--------|--5--5--------5--3--2-----|----
A------------|--------5-----------5-----|--------5--------------3--|----
E------------|-----------3-----------3--|-----------3--------------|----
                                                                        

    e  e  e  e  e  e  e  e     e  e  e  e  e  e  e  e      e  e  e      
G---------------------------|--------------------------||---------------
D---------------------1--2--|-----------------2--3--5--||--1--1--1------
A---3--3--0-----3--3--------|--3--3--0-----3-----------||---------------
E------------3--------------|-----------3--------------||---------------
                                                                        

    e  e  e  e  e     e  e  e  e  e  e  e  e     e  e  e  e  e  e  e    
G------------------|--------------------------|-------------------------
D---1--1--1--3--5--|--------------------1-----|-------------------------
A------------------|--3--3--3--3--3--3-----3--|--------------1--1--3----
E------------------|--------------------------|--4--4--4--4-------------
                                                                        

    e     e  e  e  e  e  e  e  e      e  e  e  e  e  e  e  e     e      
G------|--------------------------||--------------------------|---------
D------|--------------------1-----||--------1-----2-----3--5--|---------
A---5--|--3--3--3--3--3--3-----3--||--3--3-----3-----3--------|--3------
E------|--------------------------||--------------------------|---------
                                                                        

    e  e  e  e  e  e  e     e  e  e  e  e  e  e  e     e  e  e  e  e    
G------------------------|--------------------------|-------------------
D------1-----2-----5--3--|--------------------------|-------------------
A---3-----3-----3--------|--------0-----1-----2--3--|--------0-----3----
E------------------------|--1--1-----1-----1--------|--1--1-----1-------
                                                                        

    e  e  e     e  e  e  e  e  e  e  e     e  e  e  e  e  e  e  e       
G------------|--------------------------|--------------------------|----
D------------|--------1-----2-----3--5--|--------1-----2-----5--3--|----
A------0-----|--3--3-----3-----3--------|--3--3-----3-----3--------|----
E---1-----1--|--------------------------|--------------------------|----
                                                                        

    e  e  e  e  e  e  e  e     e  e  e  e  e  e  e  e      e  e  e      
G---------------------------|--------------------------||---------------
D---------0-----------------|--------1-----2-----5-----||--5--5---------
A---1--1-----1--1--1--3--5--|--3--3-----3-----3-----3--||--------5------
E---------------------------|--------------------------||---------------
                                                                        

    e  e  e  e  e     e  e  e  e  e  e  e  e     e  e  e  e  e  e  e    
G------------------|--------------------------|-------------------------
D---------------5--|--5--5--------5--3--2-----|--------------------1----
A------------5-----|--------5--------------3--|--3--3--0-----3--3-------
E---3--3--3--------|-----------3--------------|-----------3-------------
                                                                        

    e     e  e  e  e  e  e  e  e     e  e  e  e  e  e  e  e     e  e    
G------|--------------------------|--------------------------|----------
D---2--|-----------------2--3--4--|--5--5--------5--5--------|--5--5----
A------|--3--3--0-----3-----------|--------5-----------5-----|----------
E------|-----------3--------------|-----------3-----------3--|----------
                                                                        

    e  e  e  e  e  e     e  e  e  e  e  e  e  e     e  e  e  e  e  e    
G---------------------|--------------------------|----------------------
D---------5--3--2-----|--------------------1--2--|-----------------2----
A---5--------------3--|--3--3--0-----3--3--------|--3--3--0-----3-------
E------3--------------|-----------3--------------|-----------3----------
                                                                        

    e  e      e  e  e  e  e  e  e  e     e  e  e  e  e  e  e  e         
G---------||--------------------------|--------------------------|------
D---3--5--||--1--1--1--1--1--1--3--5--|--------------------1-----|------
A---------||--------------------------|--3--3--3--3--3--3-----3--|------
E---------||--------------------------|--------------------------|------
                                                                        

    e  e  e  e  e  e  e  e     e  e  e  e  e  e  e  e     e  e  e  e    
G---------------------------|--------------------------|----------------
D---------------------------|-----------------2--3--5--|--1--1--1--1----
A---------------1--1--3--5--|--3--3--0-----3-----------|----------------
E---4--4--4--4--------------|-----------3--------------|----------------
                                                                        

    e  e  e  e     e  e  e  e  e  e  e  e     e  e  e  e  e  e  e  e    
G---------------|--------------------------|----------------------------
D---1--1--3--5--|--------------------1-----|----------------------------
A---------------|--3--3--3--3--3--3-----3--|--------------1--1--3--5----
E---------------|--------------------------|--4--4--4--4----------------
                                                                        

       e  e  e  e  e  e  e  e      e  e  e  e  e  e  e  e     e  e      
G---|--------------------------||--------------------------|------------
D---|--------------------1-----||--5--5-----------------5--|--5--5------
A---|--3--3--3--3--3--3-----3--||--------5-----------5-----|------------
E---|--------------------------||-----------3--3--3--------|------------
                                                                        

    e  e  e  e  e  e     e  e  e  e  e  e  e  e     e  e  e  e  e  e    
G---------------------|--------------------------|----------------------
D---------5--3--2-----|--------------------1--2--|-----------------2----
A---5--------------3--|--3--3--0-----3--3--------|--3--3--0-----3-------
E------3--------------|-----------3--------------|-----------3----------
                                                                        

    e  e     e  e  e  e  e  e  e  e     e  e  e  e  e  e  e  e     e    
G---------|--------------------------|--------------------------|-------
D---3--4--|--5--5--------5--5--------|--5--5--------5--3--2-----|-------
A---------|--------5-----------5-----|--------5--------------3--|--3----
E---------|-----------3-----------3--|-----------3--------------|-------
                                                                        

    e  e  e  e  e  e  e     e  e  e  e  e  e  e  e      e  e  e  e      
G------------------------|--------------------------||------------------
D------------------1--2--|--------------------1--2--||--------1---------
A---3--0-----3--3--------|--3--3--0-----3--3--------||--3--3-----3------
E---------3--------------|-----------3--------------||------------------
                                                                        

    e  e  e  e     e  e  e  e  e  e  e  e     e  e  e  e  e  e  e  e    
G---------------|--------------------------|----------------------------
D---2-----3--5--|--------1-----2-----5--3--|----------------------------
A------3--------|--3--3-----3-----3--------|--------0-----1-----2--3----
E---------------|--------------------------|--1--1-----1-----1----------
                                                                        

       e  e  e  e  e  e  e  e     e  e  e  e  e  e  e  e     e  e  e    
G---|--------------------------|--------------------------|-------------
D---|--------------------------|--------1-----2-----3--5--|--------1----
A---|--------0-----3-----0-----|--3--3-----3-----3--------|--3--3-------
E---|--1--1-----1-----1-----1--|--------------------------|-------------
                                                                        

    e  e  e  e  e     e  e  e  e  e  e  e  e     e  e  e  e  e  e  e    
G------------------|--------------------------|-------------------------
D------2-----5--3--|--------0-----------------|--------1-----2-----5----
A---3-----3--------|--1--1-----1--1--1--3--5--|--3--3-----3-----3-------
E------------------|--------------------------|-------------------------
                                                                        

    e      e  e  e  e  e  e  e  e     e  e  e  e  e  e  e  e     e      
G------||--------------------------|--------------------------|---------
D------||--5--5-----------------5--|--5--5--------5--3--2-----|---------
A---3--||--------5-----------5-----|--------5--------------3--|--3------
E------||-----------3--3--3--------|-----------3--------------|---------
                                                                        

    e  e  e  e  e  e  e     e  e  e  e  e  e  e  e     e  e  e  e  e    
G------------------------|--------------------------|-------------------
D------------------1--2--|-----------------2--3--4--|--5--5--------5----
A---3--0-----3--3--------|--3--3--0-----3-----------|--------5----------
E---------3--------------|-----------3--------------|-----------3-------
                                                                        

    e  e  e     e  e  e  e  e  e  e  e     e  e  e  e  e  e  e  e       
G------------|--------------------------|--------------------------|----
D---5--------|--5--5--------5--3--2-----|--------------------1--2--|----
A------5-----|--------5--------------3--|--3--3--0-----3--3--------|----
E---------3--|-----------3--------------|-----------3--------------|----
                                                                        

    e  e  e  e  e  e  e  e     e  e  e  e  e  e  e  e     e  e  e  e    
G---------------------------|--------------------------|----------------
D---------------------1--2--|--5--5-----------------5--|--5--5----------
A---3--3--0-----3--3--------|--------5-----------5-----|--------5-------
E------------3--------------|-----------3--3--3--------|-----------3----
                                                                        

    e  e  e  e     e  e  e  e  e  e  e  e     e  e  e  e  e  e  e  e    
G---------------|--------------------------|----------------------------
D---5--3--2-----|--------------------1--2--|-----------------2--3--4----
A------------3--|--3--3--0-----3--3--------|--3--3--0-----3-------------
E---------------|-----------3--------------|-----------3----------------
                                                                        

       e  e  e  e  e  e  e  e     e  e  e  e  e  e  e  e     e  e  e    
G---|--------------------------|--------------------------|-------------
D---|--5--5--------5--5--------|--5--5--------5--3--2-----|-------------
A---|--------5-----------5-----|--------5--------------3--|--3--3--0----
E---|-----------3-----------3--|-----------3--------------|-------------
                                                                        

    e  e  e  e  e     e  e  e  e  e  e  e  e     e  e  e  e  e  e  e    
G------------------|--------------------------|-------------------------
D------------1--2--|--------------------1--2--|--5--5--------5--5-------
A------3--3--------|--3--3--0-----3--3--------|--------5-----------5----
E---3--------------|-----------3--------------|-----------3-------------
                                                                        

    e     e  e  e  e  e  e  e  e     e  e  e  e  e  e  e  e     e  e    
G------|--------------------------|--------------------------|----------
D------|--5--5--------5--3--2-----|--------------------1--2--|----------
A------|--------5--------------3--|--3--3--0-----3--3--------|--3--3----
E---3--|-----------3--------------|-----------3--------------|----------
                                                                        

    e  e  e  e  e  e     e  e  e  e  e  e  e  e     e  e  e  e  e  e    
G---------------------|--------------------------|----------------------
D---------------1--2--|--5--5-----------------5--|--5--5--------5--3----
A---0-----3--3--------|--------5-----------5-----|--------5-------------
E------3--------------|-----------3--3--3--------|-----------3----------
                                                                        

    e  e     e  e  e  e  e  e  e  e     e  e  e  e  e  e  e  e     e    
G---------|--------------------------|--------------------------|-------
D---2-----|--------------------1--2--|-----------------2--3--4--|--5----
A------3--|--3--3--0-----3--3--------|--3--3--0-----3-----------|-------
E---------|-----------3--------------|-----------3--------------|-------
                                                                        

    e  e  e  e  e  e  e     e  e  e  e  e  e  e  e     e  e  e  e  e    
G------------------------|--------------------------|-------------------
D---5--------5--5--------|--5--5--------5--3--2-----|-------------------
A------5-----------5-----|--------5--------------3--|--3--3--0-----3----
E---------3-----------3--|-----------3--------------|-----------3-------
                                                                        

    e  e  e     e  e  e  e  e  e  e  e     e  e  e  e  e  e  e  e       
G------------|--------------------------|--------------------------|----
D------1--2--|--------------------1--2--|--5--5-----------------5--|----
A---3--------|--3--3--0-----3--3--------|--------5-----------5-----|----
E------------|-----------3--------------|-----------3--3--3--------|----
                                                                        

    e  e  e  e  e  e  e  e     e  e  e  e  e  e  e  e     e  e  e  e    
G---------------------------|--------------------------|----------------
D---5--5--------5--3--2-----|--------------------1--2--|--5--3--2-------
A---------5--------------3--|--3--3--0-----3--3--------|-----------3----
E------------3--------------|-----------3--------------|----------------
                                                                        

  +(h)  +(w)                                                       
G------|-----||---------------------------------------------------------
D------|-----||---------------------------------------------------------
A-+(3)-|+(3)-||---------------------------------------------------------
E------|-----||---------------------------------------------------------
                                                                        



==                       TABLATURE EXPLANATION                        ==

----------                ----------                ----t---
----5h8--- Hammeron       ----(8)--- Ghost          ----6--- Tap
----------                ---------- Note           --------
----5p8--- Pulloff        ----------                --------

----------                ----------                -----p--
----5/8--- Slide Up       -----x---- Dead           -----7-- Pop
----------                ---------- Note           --s-----
----5\8--- Slide Down     ----------                --5----- Slap 

----------                ||------|| Repeat         --------
----5~~~-- Vibrato        ||*----*||                ---5^--- Bend
----------                ||*----*||                --------
--+(5)---- Tie            ||------||                --------

----------                ----------                --------
-4:------- Time           ----------                --------
-4:------- Signature      ----------                --------
----------                ----------                --------

Rhythm:
  w = whole note            W = dotted whole
  h = half note             H = dotted half
  q = quarter note          Q = dotted quarter
  e = eighth note           E = dotted eighth
  s = sixteenth note        S = dotted sixteenth
  t = 32nd note             T = dotted 32nd
  x = 64th note             X = dotted 64th
  ^ = triplet

==               Created with BUCKET O' TAB for Windows               ==





Comments


Popular Rolling Stones tabs & chords
Jumpin Jack Flash 4 Bass Tabs
Respectable Bass Tabs
Ain't To Proud To Beg Chords
Come On 1 Chords
Dead Flowers 1 Chords
Don't Stop Chords
No Spare Parts Chords
Paint It Black 3 Tabs
The Singer Not The Song Tabs
Everybody Needs Somebody To Love Ukulele


Song lyrics



↑ Back to top | Tablatures and chords are parodies/interpretations of the original songs. You may use it for private study, scholarship, research or language learning purposes only
© 2014 AZChords.com Contact us | Privacy policy | DMCA | Add/correct tabs | Request tabs | Top 50 tabs