» » »

Rolling Stones, Around And Around Bass tabs (ver.1)

Artists:  A B C D E F G H I J K L M N O P Q R S T U V W X Y Z # 

Around And Around Bass tabs (ver.1)

Rolling Stones Tabs
 Rating:
4/5 (4 votes)
Around And Around lessons Tabs too difficult? Try these video lessons and learn fast
1
                The Rolling Stones
Written by Chuck Berry; released on the album "12 X 5".

Intro:
G|------ ------ ------ ------|------ ------ ------ ------|
D|---------------------------|---------------------------|
A|---------------------------|7--------------------------|
E|---------------------------|---------------------------|
                                  I said the joint was

Verse:
G|------ ------ ------ ------|------ ------ ------ ------|
D|7------7------5------5---7-|---------------------------|
A|---------------------------|---------------------------|
E|---------------------------|---------------------------|
  rockin'                        and going 'round and 'round,


G|------ ------ ------ ------|------ ------ ------ ------|
D|7------7------5------5---7-|---------------------------|
A|---------------------------|---------------------------|
E|---------------------------|---------------------------|
                                  Yeah,  ree- lin' and a-


G|------ ------ ------ ------|------ ------ ------ ------|
D|---------------------------|---------------------------|
A|---------------------------|---------------------------|
E|10-----10-----8------8---10|---------------------------|
  rockin',                        what a cra   -   zy  sound.


G|------ ------ ------ ------|------ ------ ------ ------|
D|7------7------5------5---7-|---------------------------|
A|---------------------------|---------------------------|
E|---------------------------|---------------------------|
                                  And  they never  stop


G|------ ------ ------ ------|------ ------ ------ ------|
D|---------------------------|---------------------------|
A|7------7------5------5---7-|---------------------------|
E|---------------------------|---------------------------|
  rockin'                         till   the Moon  went


G|------ ------ ------ ------|------ ------ ------ ------|
D|7------7------5------5---7-|---------------------------|
A|---------------------------|---------------------------|
E|---------------------------|---------------------------|
  down.                           Well,  it sounds so

Verse:
G|------ ------ ------ ------|------ ------ ------ ------|
D|7------7------5------5---7-|---------------------------|
A|---------------------------|---------------------------|
E|---------------------------|---------------------------|
  sweet,                          I had to take me a   chance,


G|------ ------ ------ ------|------ ------ ------ ------|
D|7------7------5------5---7-|---------------------------|
A|---------------------------|---------------------------|
E|---------------------------|---------------------------|
                                  Rose      out of my


G|------ ------ ------ ------|------ ------ ------ ------|
D|---------------------------|---------------------------|
A|---------------------------|---------------------------|
E|10-----10--10-8------8-----|10-------------------------|
  seat,                           I  just   had    to  dance.


G|------ ------ ------ ------|------ ------ ------ ------|
D|7------7------5------5---7-|---------------------------|
A|---------------------------|---------------------------|
E|---------------------------|---------------------------|
                                  Star- ted moving my


G|------ ------ ------ ------|------ ------ ------ ------|
D|---------------------------|---------------------------|
A|7------7------5------5---7-|---------------------------|
E|---------------------------|---------------------------|
  feet,                           woah, then clapping my


G|------ ------ ------ ------|------ ------ ------ ------|
D|7------7------5------5---7-|---------------------------|
A|---------------------------|---------------------------|
E|---------------------------|---------------------------|
  hands.                          I said the joint was

Verse:
G|------ ------ ------ ------|------ ------ ------ ------|
D|---------------------4---7-|-------4-------------------|
A|-------4------7------------|--------------7------4-----|
E|5---5----------------------|---------------------------|
  rockin'                        and going 'round and 'round,


G|------ ------ ------ ------|------ ------ ------ ------|
D|---------------------4---5-|-------4-------------------|
A|-------4------7------------|--------------7------4-----|
E|5--------------------------|-------------------------5-|
                                  Yeah,  ree- lin' and a-


G|------ 4----- ------ ------|------ ------ ------ ------|
D|-----------7--7------4-----|--------------7------------|
A|5--------------------------|5------8---9---------9-----|
E|---------------------------|---------------------------|
  rockin',                        what a cra   -   zy  sound.


G|------ ------ ------ ------|------ ------ ------ ------|
D|---------------------4---7-|-------4-------------------|
A|-------4------7------------|--------------7------4-----|
E|5--------------------------|-------------------------5-|
                                  And  they never  stop


G|------ 6----- 7----- 6-----|------ ------ 7----- ------|
D|---------------------------|-------6---6---------9-----|
A|7------------------------7-|----7----------------------|
E|---------------------------|---------------------------|
  rockin'                         till   the Moon  went


G|------ ------ ------ ------|------ ------ ------ ------|
D|7------4-------------------|--------------5------4-----|
A|--------------7------4-----|-------4---7---------------|
E|---------------------------|5--------------------------|
  down.

Break (solo):
G|------ ------ ------ ------|------ ------ ------ ------|
D|7------------------------7-|----7----------------------|
A|-------9------7------9-----|-------9------7---7--9-----|
E|---------------------------|---------------------------|



G|------ ------ ------ ------|------ ------ ------ ------|
D|7--------------------------|7---7----------------------|
A|-------9---9--7------9-----|-------9---9--7------9-----|
E|---------------------------|---------------------------|



G|------ ------ ------ ------|7----- ------ ------ ------|
D|-------9---9--7------9-----|-------9---9--7------------|
A|---------------------------|---------------------9-----|
E|10-------------------------|---------------------------|



G|------ ------ ------ ------|------ ------ ------ ------|
D|7--------------------------|7---7----------------------|
A|-------9---9--7------9-----|-------9------7------------|
E|---------------------------|---------------------9-----|



G|9----- ------ ------ ------|9----- ------ ------ ------|
D|-------11--11-9------11----|-------11--11-9------------|
A|---------------------------|---------------------11----|
E|---------------------------|---------------------------|



G|------ ------ ------ ------|------ ------ ------ ------|
D|7--------------------------|7--------------------------|
A|-------9------7------9-----|-------9---9--7------9-----|
E|---------------------------|---------------------------|



G|------ ------ ------ ------|------ ------ ------ ------|
D|---------------------------|---------------------------|
A|9------9------7------7---9-|----9------9--7------7-----|
E|---------------------------|---------------------------|



G|------ ------ ------ ------|------ ------ ------ ------|
D|---------------------------|---------------------------|
A|9------9------7------7---9-|----9------9--7------9-----|
E|---------------------------|---------------------------|



G|------ ------ ------ ------|------ ------ ------ ------|
D|9------9------7------7---9-|----9------9--7------7-----|
A|---------------------------|---------------------------|
E|---------------------------|---------------------------|



G|------ ------ ------ ------|------ ------ ------ ------|
D|---------------------------|---------------------------|
A|9------9------7------7---9-|----9------9--7------7-----|
E|---------------------------|---------------------------|



G|------ ------ ------ ------|------ ------ ------ ------|
D|11-----11-----9----------9h|11--11-11--11-9---9--9-----|
A|---------------------------|---------------------------|
E|---------------------------|---------------------------|



G|------ ------ ------ ------|------ ------ ------ ------|
D|---------------------------|---------------------------|
A|9------9------7------7---9-|---------------------------|
E|---------------------------|---------------------------|
                                     Yeah,  twelve o'

Verse:
G|------ ------ ------ ------|------ ------ ------ ------|
D|7------7------5------5---7-|---------------------------|
A|---------------------------|---------------------------|
E|---------------------------|---------------------------|
  clock,                          yeah,  the place was packed,


G|------ ------ ------ ------|------ ------ ------ ------|
D|7------7------5------5---7-|---------------------------|
A|---------------------------|---------------------------|
E|---------------------------|---------------------------|
                                  Front  doors     was locked,


G|------ ------ ------ ------|------ ------ ------ ------|
D|---------------------------|---------------------------|
A|---------------------------|---------------------------|
E|10-----10--10-8------8-----|10-------------------------|
                                  yeah,  the place was packed.


G|------ ------ ------ ------|------ ------ ------ ------|
D|7------7------5------5---7-|---------------------------|
A|---------------------------|---------------------------|
E|---------------------------|---------------------------|
                                  Oh, when the police knocked,


G|------ ------ ------ ------|------ ------ ------ ------|
D|---------------------------|---------------------------|
A|7------7------5------5---7-|---------------------------|
E|---------------------------|---------------------------|
                                  those  doors     flew back.


G|------ ------ ------ ------|------ ------ ------ ------|
D|7------7------5------5---7-|---------------------------|
A|---------------------------|---------------------------|
E|---------------------------|---------------------------|
                                     But they kept on

Verse:
G|------ ------ ------ ------|------ ------ ------ ------|
D|---------------------4---7-|----7----------------------|
A|-------4------7------------|-------9------7------9-----|
E|5--------------------------|---------------------------|
  rockin',                        going 'round     and 'round,


G|------ ------ ------ ------|------ ------ ------ ------|
D|7------------------------7-|----7----------------------|
A|-------9------7------9-----|-------9------7------9-----|
E|---------------------------|---------------------------|
                                  Yeah,  ree- lin' and a-


G|7----- ------ ------ ------|------ ------ ------ ------|
D|-------9---9--7------------|-------9---9--7------------|
A|---------------------9-----|---------------------9-----|
E|---------------------------|10-------------------------|
  rockin',                        what a cra   -   zy  sound.


G|------ ------ ------ ------|------ ------ ------ ------|
D|7------------------------7-|----7----------------7-----|
A|-------9---9--7------9-----|-------9---9--7------------|
E|---------------------------|---------------------------|
                                  And  they never  stop


G|------ ------ ------ ------|------ ------ ------ ------|
D|---------------------------|---------------------------|
A|7------7------5------5-----|7------7------5------5-----|
E|---------------------------|---------------------------|
  rockin'                         till   the Moon  went


G|------ ------ ------ ------|------ ------ ------ ------|
D|7------4-------------4-----|7------4-------------------|
A|--------------7------------|--------------7------4-----|
E|---------------------------|-------------------------5-|
  down.                           And    they   kept on

Verse:
G|------ ------ ------ ------|------ ------ ------ ------|
D|-------4-------------------|-------7------5------------|
A|--------------7------4-----|---------------------7-----|
E|5------------------------5-|5--------------------------|
  rockin',                        going 'round     and 'round,


G|------ ------ ------ ------|------ ------ ------ ------|
D|-------4-------------4---7-|----7--4---4---------------|
A|--------------7------------|--------------7---7--4-----|
E|5--------------------------|-------------------------5-|
                                  And    ree- lin' and a-


G|------ 7----- 5----- ------|------ ------ ------ ------|
D|---------------------7-----|--------------7---7--------|
A|5--------------------------|5---5--8---9---------9-----|
E|---------------------------|---------------------------|
  rockin',                        what a cra   -   zy  sound.


G|------ ------ ------ ------|------ ------ ------ ------|
D|7--------------------4---4-|7------4---4---------------|
A|-----------4--7---7--------|--------------7------4-----|
E|-------5-------------------|-------------------------5-|
                                  And  they never  stop


G|------ 6----- ------ ------|------ ------ ------ ------|
D|--------------9------6-----|-------5---6--9---9--6-----|
A|7--------------------------|7---7----------------------|
E|---------------------------|---------------------------|
  rockin'                         till   the Moon  went


G|------ ------ ------ ------|------ ------ ------ ------|
D|7------------------------7-|----7----------------------|
A|-------9------7------9-----|-------9---9--7------9-----|
E|---------------------------|---------------------------|
  down.                           And    the joint stayed

Verse:
G|------ 9----- 7----- 5---5-|------ ------ ------ ------|
D|7--------------------------|7------4-------------4-----|
A|---------------------------|-----------7--7------------|
E|---------------------------|---------------------------|
  rockin',                        going 'round     and 'round,


G|------ 9----- 7----- 5---5-|------ ------ ------ ------|
D|7--------------------------|7------4-------------4-----|
A|---------------------------|-----------7--7------------|
E|---------------------------|---------------------------|
                                  Yeah,  ree- lin' and a-


G|------ 7---7- 5----- ------|------ ------ ------ ------|
D|---------------------7-----|--------------7---7--------|
A|5--------------------------|5---5--8---9---------9-----|
E|---------------------------|---------------------------|
  rockin',                        what a cra   -   zy  sound.


G|------ 9----- 7----- 5---5-|------ ------ ------ ------|
D|7--------------------------|7------4-------------------|
A|---------------------------|--------------7------4-----|
E|---------------------------|-------------------------5-|
                                  And  they never  stop


G|------ 6---6- ------ ------|9----- 6---6- ------ ------|
D|--------------9------6-----|--------------9------6-----|
A|7--------------------------|---------------------------|
E|---------------------------|---------------------------|
  rockin'                         till   the Moon  went


G|------ 9----- 7----- 5---5-|------ ------ ------ ------|
D|7--------------------------|7------4-------------4-----|
A|---------------------------|--------------7------------|
E|---------------------------|---------------------------|
  down.

Outro:
G|------ ------ ------ ------|------ ------ ------ ------|
D|--------------5------4-----|---------------------------|
A|-------7-------------------|--------------7---7--------|
E|5--------------------------|5------8---9---------9-----|



G|------ ------ ------ ------|------ ------ ------ ------|
D|-------7------5------------|--------------5---5--4-----|
A|---------------------7-----|-------4---7---------------|
E|5------------------------5-|----5----------------------|



G|------ 4----- ------ ------|------ 4----- ------ ------|
D|--------------7------4-----|-----------7--7------4-----|
A|5--------------------------|5--------------------------|
E|---------------------------|---------------------------|



G|------ ------ ------ ------|------ ------ ------ ------|
D|7------4-------------------|--------------5---5--4-----|
A|--------------7------4-----|-------4---7---------------|
E|-------------------------5-|----5----------------------|



G|------ 6---6- ------ ------|------ ------ ------ ------|
D|--------------9------6-----|-------5---6--9---9--6-----|
A|7--------------------------|7---7----------------------|
E|---------------------------|---------------------------|



G|------ 9----- 7----- 5---5-|------ ------ ------ ------|
D|7--------------------------|7------4-------------4-----|
A|---------------------------|--------------7------------|
E|---------------------------|---------------------------|



G|------ 9----- ------ 9-----|----9- ------ 9----- 9-----|
D|7-------------7----------7-|-----------7------7--------|
A|---------------------------|---------------------------|
E|---------------------------|---------------------------|



G|------ 9----- ------ 9-----|----9- ------ 9----- 9-----|
D|7-------------7----------7-|-----------7------7--------|
A|---------------------------|---------------------------|
E|---------------------------|---------------------------|



G|7----- ------ ------ ----7-|----7- ------ ------ ------|
D|-------9------7------9-----|-------9------7------9-----|
A|---------------------------|---------------------------|
E|---------------------------|---------------------------|



G|------ 9----- ----9- ------|9----- 7----- 5----- ------|
D|7-------------7----------7-|---------------------7-----|
A|---------------------------|---------------------------|
E|---------------------------|---------------------------|



G|------ ------ ------ ------|------ 4----- ------ ------|
D|-------5---6--9---9--6-----|-----------7--7------4-----|
A|7---7----------------------|7--------------------------|
E|---------------------------|---------------------------|



G|------ ------ ------ ------|------ ------ ------ ------|
D|7---7--4-------------4-----|7---7--4-------------------|
A|--------------7------------|--------------7------4-----|
E|---------------------------|---------------------------|



G|------ ------ ------ ------|------ ------ ------ ------|
D|-------7------5------------|-------4-------------------|
A|---------------------7-----|--------------7------4-----|
E|5------------------------5-|---------------------------|



G|------ ------ ------ ------|------ ------ ------ ------|
D|-------7------5------------|---------------------------|
A|---------------------7-----|--------------7------------|
E|5------------------------5-|-------8---9---------9-----|
fade out...

Please e-mail me for any corrections, or write a comment.
            
Submit corrections

comments powered by Disqus
↑ Back to top | Rolling Stones Bass for Around And Around. Lyrics for acoustic guitar and electric guitar. 1 Tablatures and chords are parodies/interpretations of the original songs. You may use it for private study, scholarship, research or language learning purposes only