» » »

Anybody Seen My Baby' Bass tabs (ver.2)

Artists:  A B C D E F G H I J K L M N O P Q R S T U V W X Y Z # 

Anybody Seen My Baby' Bass tabs (ver.2)

Rolling Stones
Rating:
0/5 (0 votes)

Tabs too difficult? Try these video lessons and learn fast.
                Intro/Verse (Repeat 3 times for Each)
G-----||----------------------------||------------|
D-4:--||*--------------------------*||------------|
A-4:--||*--0--3--5--7--5--3--0-----*||--0-----0---|
E-----||----------------------------||------------|
                                                            
  Pre Chorus
G|---------------------------|--------------------------|
D|---------------------------|--------------------------|
A|--0-----0-----0--5---3-----|--0-----0-----0--5--------|
E|------------------------3--|--------------------3--5--|
                                                            
 Fat Tones 
G|--------|-----|
D|--------|-----|
A|--------|--0--|
E|--0--3--|-----|
                                                            
    Chorus
   (Has anybody seen....)	
G||---------|--------|--------|-----|--------|--------|------||
D||*--------|--------|--0--0--|--2--|--------|--------|-----*||
A||*--3--3--|--5--5--|--------|-----|--3--3--|--5--5--|--7--*||
E||---------|--------|--------|-----|--------|--------|------||
                                                            
    Bass Solo (Before the 2nd Verse)
G||----------------------------|---------------------------||
D||*---------------------------|--------------------------*||
A||*---0-----0-----0--5--3-----|--0-----0-----0--5p3------*||
E||-------------------------5--|----------------------5p3--||
    Bass Solo (Before the 2nd Verse)
            
Tabs too difficult? Try these video lessons and learn fast.




comments powered by Disqus
↑ Back to top | Tablatures and chords are parodies/interpretations of the original songs. You may use it for private study, scholarship, research or language learning purposes only