» » »

Angie Tabs (ver.5)

Artists:  A B C D E F G H I J K L M N O P Q R S T U V W X Y Z # 

Angie Tabs (ver.5)

Rolling Stones
Rating:
0/5 (0 votes)

Hard to play? Try these video lessons and learn fast.
                (Intro)
|-----0-0-0-0-3-0-------------------0----------0-------3--------------1-------1--|
|-----1---1---1-1-----1-----------3---3------3-------3---3--------------1---1----|
|-----2---2-------2-2-----------1-------1----1-----5-------5----3-2-2-----2------|
|-----2-----------------2-2----------------------5-----------5--3-3-3------------|
|-12--0--------------------------------------------------------------------------|
|----------------------------0-------------4-------------------------------------|


|-------------0--------------|
|-------------1--------------|
|-----0-------0-------2------|
|---3-3--2-2-------0-----0---|
|-3------3-3-----------------|
|-----------------2----------|
            
Hard to play? Try these video lessons and learn fast. | Correct




comments powered by Disqus
↑ Back to top | Tablatures and chords are parodies/interpretations of the original songs. You may use it for private study, scholarship, research or language learning purposes only