>
 >
19th Nervous Breakdown

19th Nervous Breakdown Bass Tabs

Rolling Stones - 19th Nervous Breakdown chords, tabs, tablatures, lyrics

Guitar lessons | Add/correct | Request | Top 50 tabs Artists:  A B C D E F G H I J K L M N O P Q R S T U V W X Y Z 0-9

19th Nervous Breakdown Bass Tabs – Rolling Stones

CD, Sheet music, Poster

Do you like 19th Nervous Breakdown? Share with your friends now
Bass TabsChordsChords v2TabsTabs v2Ukulele
The Rolling Stones
Written by Mick Jagger and Keith Richards; released on single (with "As
Tears Go By" in the UK and "Sad Day" in the USA as B-sides)

Intro:
G|------- ------- ------- -------|------- ------- ------- -------|
D|-------------------------------|-------------------------------|
A|-------------------------------|-------------------------------|
E|-------------------------------|-------------------------------|



G|------- ------- ------- -------|------- ------- ------- -------|
D|-------------------------------|-------------------------------|
A|-------------------------------|-------------------------------|
E|-------------------------------|-------------------------------|
                                                          You're the

Verse:
G|------- ------- ------- -------|------- ------- ------- -------|
D|-------------------------------|-------------------------------|
A|--------7-------7-------5------|------------------------2------|
E|0------------------------------|0-----------3-/-4--------------|
  kind    of per  -   son     you meet at     cer  -  tain


G|------- ------- ------- -------|------- ------- ------- -------|
D|-------------------------------|-------------------------------|
A|--------7-------7-------5------|------------------------2------|
E|0------------------------------|0-----------3-/-4--------------|
  dis  -  mal     dull    affairs,                        Center


G|------- ------- ------- -------|------- ------- ------- -------|
D|-------------------------------|-------------------------------|
A|--------7-------7-------5------|------------------------2------|
E|0------------------------------|0-----------3-/-4--------------|
  of      a   crowd,  tal  - king much    too loud   run  -   ning


G|------- ------- ------- -------|------- ------- ------- -------|
D|-------------------------------|-------------------------------|
A|--------7-------7-------5------|------------------------2------|
E|0------------------------------|0-----------3-/-4--------------|
  up      and     down    the stairs.               Well, it


G|------- ------- ------- -------|------- ------- ------- -------|
D|--------7-------7-------5------|------------------------2------|
A|0------------------------------|0-----------3-/-4--------------|
E|-------------------------------|-------------------------------|
  seems   to  me      that    you     have    seen    too     much


G|------- ------- ------- -------|------- ------- ------- -------|
D|--------7-------7-------5------|------------------------2------|
A|0------------------------------|0-----------3-/-4--------------|
E|-------------------------------|-------------------------------|
      in      too     few     years,                      And


G|------- ------- ------- -------|------- ------- ------- -------|
D|-------------------------------|-------------------------------|
A|--------7-------7-------5------|------------------------2------|
E|0------------------------------|0-----------3-/-4--------------|
  though  you try         you just    can't   hide,       your


G|------- ------- ------- -------|------- ------- ------- -------|
D|-------------------------------|-------------------------------|
A|--------7-------7-------5------|------------------------2------|
E|0------------------------------|0-----------3-/-4--------------|
  eyes    are edged   with    tears.                  You'd better


G|4------ ------- ------- -------|------- ------- ------- -------|
D|-------------------------------|-------------------------------|
A|-------------------------------|-------------------------------|
E|-------------------------------|-------------------------------|
  stop,                                                   look a-


G|2------ ------- ------- -------|------- ------- ------- -------|
D|-------------------------------|-------------------------------|
A|-------------------------------|-------------------------------|
E|-------------------------------|-------------------------------|
  round.                                              Here it

Refrain:
G|------- ------- ------- -------|------- ------- ------- -------|
D|-------------------------------|-------------------------------|
A|--------7-------7-------5------|--------------------2----------|
E|0------------------------------|0-----------3-/-4--------------|
  comes,                                              here it


G|------- ------- ------- -------|------- ------- ------- -------|
D|-------------------------------|-------------------------------|
A|--------7-------7-------5------|--------------------2----------|
E|0------------------------------|0-----------3-/-4--------------|
  comes,                                              Here it


G|------- ------- ------- -------|------- ------- ------- -------|
D|--------7-------7-------5------|--------------------2----------|
A|0------------------------------|0-----------3-/-4--------------|
E|-------------------------------|-------------------------------|
  comes,                                              here it


G|------- ------- ------- -------|------- ------- ------- -------|
D|--------7-------7-------5------|------------------------2------|
A|0------------------------------|0-----------3-/-4--------------|
E|-------------------------------|-------------------------------|
  comes,                                              Here


G|------- ------- ------- -------|------- ------- ------- -------|
D|-------------------------------|-------------------------------|
A|--------7-------7-------5------|------------------------2------|
E|0------------------------------|0-----------3-/-4--------------|
  comes   your    nine -  teenth  ner  -  vous break- down


G|------- ------- ------- -------|------- ------- ------- -------|
D|-------------------------------|-------------------------------|
A|--------7-------7-------5------|------------------------2------|
E|0------------------------------|0-----------3-/-4--------------|



G|------- ------- ------- -------|------- ------- ------- -------|
D|-------------------------------|-------------------------------|
A|--------7-------7-------5------|------------------------2------|
E|0------------------------------|0-----------3-/-4--------------|
                                                      Oh, when you

Verse:
G|------- ------- ------- -------|------- ------- ------- -------|
D|-------------------------------|-------------------------------|
A|--------7-------7-------5------|------------------------2------|
E|0------------------------------|0-----------3-/-4--------------|
  were    a   child,  you were    trea -  ted kind,   but     you


G|------- ------- ------- -------|------- ------- ------- -------|
D|-------------------------------|-------------------------------|
A|--------7-------7-------5------|------------------------2------|
E|0------------------------------|0-----------3-/-4--------------|
  ne- ver     brought up      right,                  And you were


G|------- ------- ------- -------|------- ------- ------- -------|
D|-------------------------------|-------------------------------|
A|--------7-------7-------5------|------------------------2------|
E|0------------------------------|0-----------3-/-4--------------|
  al  -   ways spoiled    with a  thou -  sand toys,      but


G|------- ------- ------- -------|------- ------- ------- -------|
D|-------------------------------|-------------------------------|
A|--------7-------7-------5------|------------------------2------|
E|0------------------------------|0-----------3-/-4--------------|
  still   you cried  at      night.                  Your


G|------- ------- ------- -------|------- ------- ------- -------|
D|--------7-------7-------5------|------------------------2------|
A|0------------------------------|0-----------3-/-4--------------|
E|-------------------------------|-------------------------------|
  mother      who     neg    -    lected          you owns    a


G|------- ------- ------- -------|------- ------- ------- -------|
D|--------7-------7-------5------|------------------------2------|
A|0------------------------------|0-----------3-/-4--------------|
E|-------------------------------|-------------------------------|
  mil  -  lion dol  - lars    tax,                    And your


G|------- ------- ------- -------|------- ------- ------- -------|
D|-------------------------------|-------------------------------|
A|--------7-------7-------5------|------------------------2------|
E|0------------------------------|0-----------3-/-4--------------|
  fa  -   ther    still   per  -  fecting     ways    of


G|------- ------- ------- -------|------- ------- ------- -------|
D|-------------------------------|-------------------------------|
A|--------7-------7-------5------|------------------------2------|
E|0------------------------------|0-----------3-/-4--------------|
  ma      king    cei  -  ling wax.                   You'd better


G|4------ ------- ------- -------|------- ------- ------- -------|
D|-------------------------------|-------------------------------|
A|-------------------------------|-------------------------------|
E|-------------------------------|-------------------------------|
  stop,                                                   look a-


G|2------ ------- ------- -------|------- ------- ------- -------|
D|-------------------------------|-------------------------------|
A|-------------------------------|-------------------------------|
E|-------------------------------|-------------------------------|
  round.                                              Here it

Refrain:
G|------- ------- ------- -------|------- ------- ------- -------|
D|-------------------------------|-------------------------------|
A|--------7-------7-------5------|--------------------2----------|
E|0------------------------------|0-----------3-/-4--------------|
  comes,                                              here it


G|------- ------- ------- -------|------- ------- ------- -------|
D|-------------------------------|-------------------------------|
A|--------7-------7-------5------|--------------------2----------|
E|0------------------------------|0-----------3-/-4--------------|
  comes,                                              Here it


G|------- ------- ------- -------|------- ------- ------- -------|
D|--------7-------7-------5------|--------------------2----------|
A|0------------------------------|0-----------3-/-4--------------|
E|-------------------------------|-------------------------------|
  comes,                                              here it


G|------- ------- ------- -------|------- ------- ------- -------|
D|--------7-------7-------5------|------------------------2------|
A|0------------------------------|0-----------3-/-4--------------|
E|-------------------------------|-------------------------------|
  comes,                                              Here


G|------- ------- ------- -------|------- ------- ------- -------|
D|-------------------------------|-------------------------------|
A|--------7-------7-------5------|------------------------2------|
E|0------------------------------|0-----------3-/-4--------------|
  comes   your    nine -  teenth  ner  -  vous break- down


G|------- ------- ------- -------|------- ------- ------- -------|
D|-------------------------------|-------------------------------|
A|--------7-------7-------5------|------------------------2------|
E|0------------------------------|0-----------3-/-4--------------|


Bridge:
G|------- 4------ 4------ 4------|4------ 4------ 4------ 4------|
D|-------------------------------|-------------------------------|
A|2------------------------------|-------------------------------|
E|-------------------------------|-------------------------------|
  Oh,                             who's           to          blame?


G|4------ 4------ 4------ 4------|4------ 4------ 4------ 4------|
D|-------------------------------|-------------------------------|
A|-------------------------------|-------------------------------|
E|-------------------------------|-------------------------------|
                                                          That


G|------- ------- ------- -------|------- ------- ------- -------|
D|2-------2-------2-------2------|2-------2-------2-------2------|
A|-------------------------------|-------------------------------|
E|-------------------------------|-------------------------------|
  girl's                          just            in    -     sane.


G|------- ------- ------- -------|------- ------- ------- -------|
D|2-------2-------2-------2------|2-------2-------2-------2------|
A|-------------------------------|-------------------------------|
E|-------------------------------|-------------------------------|
                                                          Well,


G|------- ------- ------- -------|------- ------- ------- -------|
D|2------------------------------|-------------------------------|
A|-------------------------------|-------------------------------|
E|-------------------------------|-------------------------------|
  nothing I       do      don't   seem    to  work,           it


G|------- ------- ------- -------|------- ------- ------- -------|
D|-------------------------------|-------------------------------|
A|-------------------------------|-------------------------------|
E|-------------------------------|-------------------------------|
  on   -  ly  seems   to  make    matters     worse,  oh,


G|------- ------- ------- -------|------- ------- ------- -------|
D|2-------2-------2-------2------|2-------2-------2-------2------|
A|-------------------------------|-------------------------------|
E|-------------------------------|-------------------------------|
  please!


G|------- ------- ------- -------|------- ------- ------- -------|
D|2-------2-------2-------2------|2-------2-------2-------2------|
A|-------------------------------|-------------------------------|
E|-------------------------------|-------------------------------|
                                                          You were

Verse:
G|------- ------- ------- -------|------- ------- ------- -------|
D|-------------------------------|-------------------------------|
A|--------7-------7-------5------|------------------------2------|
E|0------------------------------|0-----------3-/-4--------------|
  still in        school  you had     that    fool    who
                      when

G|------- ------- ------- -------|------- ------- ------- -------|
D|-------------------------------|-------------------------------|
A|--------7-------7-------5------|------------------------2------|
E|0------------------------------|0-----------3-/-4--------------|
  real -  ly  messed  your    mind,                       And


G|------- ------- ------- -------|------- ------- ------- -------|
D|-------------------------------|-------------------------------|
A|--------7-------7-------5------|------------------------2------|
E|0------------------------------|0-----------3-/-4--------------|
  af   -  ter that    you     turned  your back   on


G|------- ------- ------- -------|------- ------- ------- -------|
D|-------------------------------|-------------------------------|
A|--------7-------7-------5------|------------------------2------|
E|0------------------------------|0-----------3-/-4--------------|
  trea -  ting    people      kind.                       On


G|------- ------- ------- -------|------- ------- ------- -------|
D|--------7-------7-------5------|------------------------2------|
A|0------------------------------|0-----------3-/-4--------------|
E|-------------------------------|-------------------------------|
  our     first   trip I      tried   so      hard        to


G|------- ------- ------- -------|------- ------- ------- -------|
D|--------7-------7-------5------|------------------------2------|
A|0------------------------------|0-----------3-/-4--------------|
E|-------------------------------|-------------------------------|
  re- ar  -   range   your    mind,                       But


G|------- ------- ------- -------|------- ------- ------- -------|
D|-------------------------------|-------------------------------|
A|--------7-------7-------5------|------------------------2------|
E|0------------------------------|0-----------3-/-4--------------|
  af  -   ter 'while      I       re- a   -   lized   you were


G|------- ------- ------- -------|------- ------- ------- -------|
D|-------------------------------|-------------------------------|
A|--------7-------7-------5------|------------------------2------|
E|0------------------------------|0-----------3-/-4--------------|
  dis  -  ar  -   ran  -  ging mine.                  You'd better


G|4------ ------- ------- -------|------- ------- ------- -------|
D|-------------------------------|-------------------------------|
A|-------------------------------|-------------------------------|
E|-------------------------------|-------------------------------|
  stop,                                                   look a-


G|2------ ------- ------- -------|------- ------- ------- -------|
D|-------------------------------|-------------------------------|
A|-------------------------------|-------------------------------|
E|-------------------------------|-------------------------------|
  round.                                              Here it

Refrain:
G|------- ------- ------- -------|------- ------- ------- -------|
D|-------------------------------|-------------------------------|
A|--------7-------7-------5------|------------------------2------|
E|0------------------------------|0-----------3-/-4--------------|
  comes,                                              here it


G|------- ------- ------- -------|------- ------- ------- -------|
D|-------------------------------|-------------------------------|
A|--------7-------7-------5------|--------------------2----------|
E|0------------------------------|0-----------3-/-4--------------|
  comes,                                              Here it


G|------- ------- ------- -------|------- ------- ------- -------|
D|--------7-------7-------5------|--------------------2----------|
A|0------------------------------|0-----------3-/-4--------------|
E|-------------------------------|-------------------------------|
  comes,                                              here it


G|------- ------- ------- -------|------- ------- ------- -------|
D|--------7-------7-------5------|------------------------2------|
A|0------------------------------|0-----------3-/-4--------------|
E|-------------------------------|-------------------------------|
  comes,                                              Here


G|------- ------- ------- -------|------- ------- ------- -------|
D|-------------------------------|-------------------------------|
A|--------7-------7-------5------|------------------------2------|
E|0------------------------------|0-----------3-/-4--------------|
  comes   your    nine -  teenth  ner  -  vous break- down


G|------- ------- ------- -------|------- ------- ------- -------|
D|-------------------------------|-------------------------------|
A|--------7-------7-------5------|------------------------2------|
E|0------------------------------|0-----------3-/-4--------------|



G|------- ------- ------- -------|------- ------- ------- -------|
D|-------------------------------|-------------------------------|
A|-------------------------------|-------------------------------|
E|-------------------------------|-------------------------------|



G|------- ------- ------- -------|------- ------- ------- -------|
D|-------------------------------|-------------------------------|
A|-------------------------------|-------------------------------|
E|-------------------------------|-------------------------------|



G|------- ------- ------- -------|------- ------- ------- -------|
D|-------------------------------|-------------------------------|
A|-------------------------------|-------------------------------|
E|-------------------------------|-------------------------------|


Bridge:
G|4------ 4------ 4------ -------|4------ ------- 4------ -------|
D|-------------------------------|-------------------------------|
A|-------------------------------|-------------------------------|
E|-------------------------------|-------------------------------|
  Oh,                             who's           to          blame?


G|4------ ------- 4------ -------|4------ 4------ 4------ -------|
D|-------------------------------|-------------------------------|
A|-------------------------------|-------------------------------|
E|-------------------------------|-------------------------------|
                                                          That


G|------- ------- ------- -------|------- ------- ------- -------|
D|2-------2-------2-------2------|2-------2-------2-------2------|
A|-------------------------------|-------------------------------|
E|-------------------------------|-------------------------------|
  girl's                          just            in    -     sane.


G|------- ------- ------- -------|------- ------- ------- -------|
D|2-------2-------2-------2------|2-------2-------2-------2------|
A|-------------------------------|-------------------------------|
E|-------------------------------|-------------------------------|
                                                          Well,


G|2------ ------- ------- -------|------- ------- ------- -------|
D|-------------------------------|-------------------------------|
A|-------------------------------|-------------------------------|
E|-------------------------------|-------------------------------|
  nothing I       do      don't   seem    to  work,           it


G|------- ------- ------- -------|------- ------- ------- -------|
D|-------------------------------|-------------------------------|
A|-------------------------------|-------------------------------|
E|-------------------------------|-------------------------------|
  on   -  ly  seems   to  make    matters     worse,  oh,


G|------- ------- ------- -------|------- ------- ------- -------|
D|2-------2-------2-------2------|2-------2-------2-------2------|
A|-------------------------------|-------------------------------|
E|-------------------------------|-------------------------------|
  please!


G|------- ------- ------- -------|------- ------- ------- -------|
D|2-------2-------2-------2------|2-------2-------2-------2------|
A|-------------------------------|-------------------------------|
E|-------------------------------|-------------------------------|
                                                          When you

Verse:
G|------- ------- ------- -------|------- ------- ------- -------|
D|-------------------------------|-------------------------------|
A|--------7-------7-------5------|------------------------2------|
E|0------------------------------|0-----------3-/-4--------------|
  were    a   child,  you were    trea -  ted kind,   but     you


G|------- ------- ------- -------|------- ------- ------- -------|
D|-------------------------------|-------------------------------|
A|--------7-------7-------5------|------------------------2------|
E|0------------------------------|0-----------3-/-4--------------|
  ne- ver     brought up      right,                  And you were


G|------- ------- ------- -------|------- ------- ------- -------|
D|-------------------------------|-------------------------------|
A|--------7-------7-------5------|------------------------2------|
E|0------------------------------|0-----------3-/-4--------------|
  al  -   ways spoiled    with a  thou -  sand toys,      but


G|------- ------- ------- -------|------- ------- ------- -------|
D|-------------------------------|-------------------------------|
A|--------7-------7-------5------|------------------------2------|
E|0------------------------------|0-----------3-/-4--------------|
  still   you cried   at      night.                  Your


G|------- ------- ------- -------|------- ------- ------- -------|
D|--------7-------7-------5------|------------------------2------|
A|0------------------------------|0-----------3-/-4--------------|
E|-------------------------------|-------------------------------|
  mother      who     neg    -    lected          you owns    a


G|------- ------- ------- -------|------- ------- ------- -------|
D|--------7-------7-------5------|------------------------2------|
A|0------------------------------|0-----------3-/-4--------------|
E|-------------------------------|-------------------------------|
  mil  -  lion dol  - lars    tax,                    And your


G|------- ------- ------- -------|------- ------- ------- -------|
D|-------------------------------|-------------------------------|
A|--------7-------7-------5------|------------------------2------|
E|0------------------------------|0-----------3-/-4--------------|
  fa  -   ther    still   per  -  fecting     ways    of


G|------- ------- ------- -------|------- ------- ------- -------|
D|-------------------------------|-------------------------------|
A|--------7-------7-------5------|-------------------------------|
E|0------------------------------|0-----------3-/-4-------5------|
  ma      king    cei  -  ling wax.                   You'd better


G|4------ ------- ------- -------|------- ------- ------- -------|
D|-------------------------------|-------------------------------|
A|-------------------------------|-------------------------------|
E|-------------------------------|-------------------------------|
  stop,                                                   look a-


G|2------ ------- ------- -------|------- ------- ------- -------|
D|-------------------------------|-------------------------------|
A|-------------------------------|-------------------------------|
E|-------------------------------|-------------------------------|
  round.

Outro:
G|------- ------- ------- -------|------- ------- ------- -------|
D|-------------------------------|-------------------------------|
A|--------7-------7-------5------|------------------------2------|
E|0------------------------------|0-----------3-/-4--------------|



G|------- ------- ------- -------|------- ------- ------- -------|
D|2-------2-------2-------2------|2-------2-------2-------2------|
A|-------------------------------|-------------------------------|
E|-------------------------------|-------------------------------|
                                                      Here it


G|------- ------- ------- -------|------- ------- ------- -------|
D|-------------------------------|-------------------------------|
A|--------7-------7-------5------|------------------------2------|
E|0------------------------------|0-----------3-/-4--------------|
  comes,                                              here


G|------- ------- ------- -------|------- ------- ------- -------|
D|-------------------------------|-------------------------------|
A|--------7-------7-------5------|------------------------2------|
E|0------------------------------|0-----------3-/-4--------------|
  comes   your    nine -  teenth  ner  -  vous break- down,


G|------- ------- ------- -------|------- ------- ------- -------|
D|-------------------------------|-------------------------------|
A|--------7-------7-------5------|------------------------2------|
E|0------------------------------|0-----------3-/-4--------------|
(play fast triplets, three notes for each beat while sliding down)
G|21----- \------ ------- -------|------- ------- ------- -------| bass 2.
D|-------------------------------|-------------------------------|
A|-------------------------------|-------------------------------|
E|-------------------------------|-------------------------------|
                                                      Here
Repeat and fade...

Please e-mail me for any corrections, or write a comment.





Comments


Popular Rolling Stones tabs & chords
Cant You Hear Me Knocking Bass Tabs
Blue Turns To Grey Chords
Can't Be Seen Chords
Jigsaw Puzzle Chords
Sister Morphine Chords
Im All Right Tabs
Its Only Rock N Roll Tabs
Sympathy For The Devil Tabs
Wanna Hold You 1 Tabs
Confessin The Blues Ukulele


Song lyrics



↑ Back to top | Tablatures and chords are parodies/interpretations of the original songs. You may use it for private study, scholarship, research or language learning purposes only
© 2014 AZChords.com Contact us | Privacy policy | DMCA | Add/correct tabs | Request tabs | Top 50 tabs