» » »

Watching You Tabs (ver.1)

Artists:  A B C D E F G H I J K L M N O P Q R S T U V W X Y Z # 

Watching You Tabs (ver.1)

Rogue Traders
Rating:
4/5 (3 votes)

Hard to play? Try these video lessons and learn fast.
                (Intro)
e|-------------------------------------------------------------------|
b|-------------------------------------------------------------------|
g|-------------------------------------------------------------------|
d|-----5-----5-------------5---------------5--------------5--------5-|
a|-------------------------------------------------------------------|
e|--3-----3-----2-----3---------3-----3--------2-----3----------3----|

e|-------------------------|
b|-------------------------|
g|----5----5-5--3----------|
d|----5----5-5--3----------|
a|----3----3-3--1----------|
E|-------------------------|
            
Hard to play? Try these video lessons and learn fast. | Correct




comments powered by Disqus
↑ Back to top | Tablatures and chords are parodies/interpretations of the original songs. You may use it for private study, scholarship, research or language learning purposes only