>
 >
In Love Again

In Love Again Guitar Tabs

Rogue Traders - In Love Again chords, tabs, tablatures, lyrics

Guitar lessons | Add/correct | Request | Top 50 tabs Artists:  A B C D E F G H I J K L M N O P Q R S T U V W X Y Z 0-9

In Love Again Guitar Tabs – Rogue Traders

CD, Sheet music, Poster

Do you like In Love Again? Share with your friends now
Tabs


 . = palm mute
 h = hammer-on
 p = pull-off
 / = slide up
 \ = slide down
 ~ = vibrato



[INTRO / 0:00] x4
Riff A
e|--------------------------------|--------------------------------|
B|-----3-------3-------3-------3--|-----5-------5-------5-------5--|
G|---5-------5-------5-------5----|---7-------7-------7-------7----|
D|-5-------5-------5-------5------|-7-------7-------7-------7------|
A|--------------------------------|--------------------------------|
E|--------------------------------|--------------------------------|
   . .     . .     . .     . .      . .     . .     . .     . .


[INTERLUDE / 0:32] x8
Riff B
e|--------------------------------|
B|--------------------------------| [you should listen to the song in
G|--77------77------77------77----|  order to hear exactly what this
D|--------------------------------|  part is meant to sound like]
A|--------------------------------|
E|--------------------------------|
    ..      ..      ..      ..


[VERSE 1 / 1:03] x8
Riff A
  (He said hey..)
e|--------------------------------|--------------------------------|
B|-----3-------3-------3-------3--|-----5-------5-------5-------5--|
G|---5-------5-------5-------5----|---7-------7-------7-------7----|
D|-5-------5-------5-------5------|-7-------7-------7-------7------|
A|--------------------------------|--------------------------------|
E|--------------------------------|--------------------------------|
   . .     . .     . .     . .      . .     . .     . .     . .


[CHORUS / 1:34] x8
Riff C
  (I'm falling, I'm falling in love again..)
e|---------------------------------|
B|-8---7-5-----5-----8-7-5---5-----|
G|---------7-----5---------7---5---|
D|---------------------------------|
A|---------------------------------|
E|---------------------------------|



[VERSE 2 / 2:05] x8
Riff B
  (He said hey..)
e|--------------------------------|--------------------------------|
B|-----3-------3-------3-------3--|-----5-------5-------5-------5--|
G|---5-------5-------5-------5----|---7-------7-------7-------7----|
D|-5-------5-------5-------5------|-7-------7-------7-------7------|
A|--------------------------------|--------------------------------|
E|--------------------------------|--------------------------------|
   . .     . .     . .     . .      . .     . .     . .     . .


[CHORUS / 2:35] x8
Riff C
  (I'm falling, I'm falling in love again..)
e|--------------------------------|
B|-8---7-5-----5-----8-7-5---5----|
G|---------7-----5---------7---5--|
D|--------------------------------|
A|--------------------------------|
E|--------------------------------|



[GUITAR SOLO / 3:06]
Riff D
e|-----------------------------------|-----------------------------------|
B|----5-----5-----5-----5-----5------|----5-----5-----5-----5-----7------|
G|--5-----5-----5-----5-----5---7----|--5-----5-----5-----5-----5---7----|
D|-----------------------------------|-----------------------------------|
A|-----------------------------------|-----------------------------------|
E|-----------------------------------|-----------------------------------|



[BRIDGE / 3:37] x4
Riff A
  (on 3rd "laalalalaalaa..")
e|--------------------------------|
B|-8---7-5-----5-----8-7-5---5----|
G|---------7-----5---------7---5--|
D|--------------------------------|
A|--------------------------------|
E|--------------------------------|



[CHORUS / 4:07] x8
Riff C
  (I'm falling in love again..)
e|--------------------------------|
B|-8---7-5-----5-----8-7-5---5----|
G|---------7-----5---------7---5--|
D|--------------------------------|
A|--------------------------------|
E|--------------------------------|



[OUTRO / 4:38] x2(fadeout)
Riff A
e|-----------------------------------|-----------------------------------|
B|-----3--------3--------3--------3--|-----5--------5--------5--------5--|
G|---5--------5--------5--------5----|---7--------7--------7--------7----|
D|-5--------5--------5--------5------|-7--------7--------7--------7------|
A|-----------------------------------|-----------------------------------|
E|-----------------------------------|-----------------------------------|
   . .      . .      . .      . .     . .      . .      . .      . .



==========EXTRA BITS==========


BASSLINE
Riff E
e|-----------------------------------|-----------------------------------|
B|---------8-7-5-5----------8-7-5-5--|---------8-7-5-5----------8-7-5-5--|
G|-5-5---5----------5-5---5----------|-7-7---7----------7-7---7----------|
D|-----5----------------5------------|-----7----------------7------------|
A|-----------------------------------|-----------------------------------|
E|-----------------------------------|-----------------------------------|


"LALA" RIFF
Riff F
e|-8---7---5---------8-7---5-------|-------------5-----------5-------|
B|-------8-----5---------5-----5---|-5-----------------7---------7---|
G|---------------------------------|-------7-------------------------|
D|---------------------------------|---------------------------------|
A|---------------------------------|---------------------------------|
E|---------------------------------|---------------------------------|





Comments


Popular Rogue Traders tabs & chords
Way To Go! Chords
What You're On Chords
Fashion Tabs
I Never Liked You Intro Tabs
Voodoo Child Tabs
Watching You Intro Tabs
Way To Go! Tabs
Way To Go! 1 Tabs
We're Coming Home Tabs
What Youre On Ukulele


Song lyrics



↑ Back to top | Tablatures and chords are parodies/interpretations of the original songs. You may use it for private study, scholarship, research or language learning purposes only
© 2014 AZChords.com Contact us | Privacy policy | DMCA | Add/correct tabs | Request tabs | Top 50 tabs