» » »

Rogue Traders, I Never Liked You Tabs (ver.1)

Artists:  A B C D E F G H I J K L M N O P Q R S T U V W X Y Z # 

I Never Liked You Tabs (ver.1)

Rogue Traders Tabs
 Rating:
4/5 (6 votes)
I Never Liked You lessons Tabs too difficult? Try these video lessons and learn fast
1
                (Intro)
-------------------------------------------------------------------------------
                             I NEVER LIKED YOU - Rogue Traders
-------------------------------------------------------------------------------

Tuning:Drop D (E,B,G,D,A,D)

e|------------------------------------------------------------------|
B|------------------------------------------------------------------|
G|------------------------------------------------------------------|
D|--0-0-0-0---------0-0-0-0---------0-0-0-0-------------------------|
A|------------------------------------------------------------------|
D|------------0---------------0---------------0---5/6/7---8/10/12---|

e|----------------------------------------------------------------|
B|----------------------------------------------------------------|
G|----------------------------------------------------------------|
D|--5-5-5-5---------5-5-5-5---------5-5-5-5-----------------------|
A|----------------------------------------------------------------|
D|------------5---------------5---------------5-----5-5-5-5\4\3---|

e|----------------------|
B|----------------------|
G|----------------------|
D|----------------------|
A|----------------------|
D|5/6/7---7/8/10--12\---|
            
Submit corrections

comments powered by Disqus
↑ Back to top | Rogue Traders Tabs for I Never Liked You. Lyrics for acoustic guitar and electric guitar. 1 Tablatures and chords are parodies/interpretations of the original songs. You may use it for private study, scholarship, research or language learning purposes only