>
 >
I Never Liked You

I Never Liked You Guitar Tabs

Rogue Traders - I Never Liked You chords, tabs, tablatures, lyrics

Guitar lessons | Add/correct | Request | Top 50 tabs Artists:  A B C D E F G H I J K L M N O P Q R S T U V W X Y Z 0-9

I Never Liked You Guitar Tabs – Rogue Traders

CD, Sheet music, Poster

Do you like I Never Liked You? Share with your friends now
Tabs
----------------------------------------------------------------------------
----------------------------------------------------------------------------

I noticed there were no tabs for this song other than an intro tab so i decided to tab 
full song. This is my first tab so hope you enjoy and leave feedback but rate carefully.

Tuning: Drop D

Intro:
e|-------------------------------------------------------------------------|
B|-------------------------------------------------------------------------|
G|-------------------------------------------------------------------------|
D|---0-0-0-0--------0-0-0-0-------0-0-0-0----------------------------------|
A|-------------------------------------------------------------------------|
D|------------0--------------0-------------0---6-7-8--8-9-11---------------|


e|-------------------------------------------------------------------------|
B|-------------------------------------------------------------------------|
G|-------------------------------------------------------------------------|
D|---0-0-0-0--------0-0-0-0-------0-0-0-0-------0-0-0-0--------------------|
A|-------------------------------------------------------------------------|
D|------------0--------------0-------------0-------------------------------|

e|-------------------------------------------------------------------------|
B|-------------------------------------------------------------------------|
G|-------------------------------------------------------------------------|
D|---0-0-0-0-------0-0-0-0-------0-0-0-0-----------------------------------|
A|-------------------------------------------------------------------------|
D|------------0-------------0-------------0--6-7-8--8-9-11-----------------|

e|----------------------------------------------------------------------------|
B|----------------------------------------------------------------------------|
G|----------------------------------------------------------------------------|
D|---5-5-5-5-------5-5-5-5-----5-5-5-5-------5-5-5-5-4-3----------------------|
A|------------------------------------------------------------------------12/-|
D|------------5-------------5-----------5------------------6-7-8--8-9-11--12/-|

Verse 1:

*GUITAR 1:*
e|-------------------------------------------------------------------------|
B|-------------------------------------------------------------------------|
G|-------------------------------------------------------------------------|
D|-------------------------------------------------------------------------|
A|-------------------------------------------------------------------------|
D|--0-0-0-0-0-0-0-0-7-7-7-7-7-7-7-7-5-5-5-5-5-5-5-5-5-5-5-5-5-5-5-5--------|
P.M   ______________ _______________ ______________________________

e|-------------------------------------------------------------------------|
B|-------------------------------------------------------------------------|
G|-------------------------------------------------------------------------|
D|-------------------------------------------------------------------------|
A|-------------------------------------------------------------------------|
D|--9-9-9-9-9-9-9-9-7-7-7-7-7-7-7-7-5-5-5-5-5-5-5-5-5-5-5-5-5-5-5-5--------|
P.M  _______________ _______________ ______________________________

e|-------------------------------------------------------------------------|
B|-------------------------------------------------------------------------|
G|-------------------------------------------------------------------------|
D|-------------------------------------------------------------------------|
A|-------------------------------------------------------------------------|
D|--0-0-0-0-0-0-0-0-7-7-7-7-7-7-7-7-5-5-5-5-5-5-5-5-5-5-5-5-5-5-5-5--------|
P.M   ______________ _______________ ______________________________

e|-------------------------------------------------------------------------|
B|-------------------------------------------------------------------------|
G|-------------------------------------------------------------------------|
D|-------------------------------------------------------------------------|
A|-------------------------------------------------------------------------|
D|--7-7-7-7-7-7-7-7-9-9-9-9-9-9-9-9-5-5-5-5-5-5-5-5-5-5-5-5-5-5-5-5--------|
P.M   ______________ _______________ ______________________________

*GUITAR 2:*
LISTEN TO SONG FOR TIMING
e|-------------------------------------------------------------------------|
B|-------------------------------------------------------------------------|
G|--12--12-12-12--12--12-12--12-12-12--------------------------------------|
D|-------------------------------------------------------------------------|
A|-------------------------------------------------------------------------|
D|-------------------------------------------------------------------------|

Pre Chorus:

e|-----------------------------|
B|-----------------------------|
G|-----------------------------|
D|-----------------------------|
A|---0------3------5------7----|
D|---0------3------5------7----|

Chorus:
e|-------------------------------------------------------------------------|
B|-------------------------------------------------------------------------|
G|-------------------------------------------------------------------------|
D|---0-0-0-0-------0-0-0-0-------0-0-0-0-----------------------------------|
A|-------------------------------------------------------------------------|
D|------------0-------------0-------------0--6-7-8--8-9-11-----------------|

e|-------------------------------------------------------------------------|
B|-------------------------------------------------------------------------|
G|-------------------------------------------------------------------------|
D|---5-5-5-5-------5-5-5-5-----5-5-5-5-------5-5-5-5-4-3-------------------|
A|-------------------------------------------------------------------------|
D|------------5-------------5-----------5----------------------------------|

e|-------------------------------------------------------------------------|
B|-------------------------------------------------------------------------|
G|-------------------------------------------------------------------------|
D|---0-0-0-0-------0-0-0-0-------0-0-0-0-----------------------------------|
A|-------------------------------------------------------------------------|
D|------------0-------------0-------------0--6-7-8--8-9-11-----------------|

e|--------------------------------------------------------------------------|
B|--------------------------------------------------------------------------|
G|--------------------------------------------------------------------------|
D|---5-5-5-5-------5-5-5-5-----5-5-5-5-------5-5-5-5-4-3--------------------|
A|-----------------------------------------------------------------------12/|
D|------------5-------------5-----------5-----------------6-7-8--8-9-11--12/|

Verse 2:
*GUITAR 1:*
e|-------------------------------------------------------------------------|
B|-------------------------------------------------------------------------|
G|-------------------------------------------------------------------------|
D|-------------------------------------------------------------------------|
A|-------------------------------------------------------------------------|
D|--0-0-0-0-0-0-0-0-7-7-7-7-7-7-7-7-5-5-5-5-5-5-5-5-5-5-5-5-5-5-5-5--------|
P.M   ______________ _______________ ______________________________

e|-------------------------------------------------------------------------|
B|-------------------------------------------------------------------------|
G|-------------------------------------------------------------------------|
D|-------------------------------------------------------------------------|
A|-------------------------------------------------------------------------|
D|--9-9-9-9-9-9-9-9-7-7-7-7-7-7-7-7-5-5-5-5-5-5-5-5-5-5-5-5-5-5-5-5--------|
P.M  _______________ _______________ ______________________________

e|-------------------------------------------------------------------------|
B|-------------------------------------------------------------------------|
G|-------------------------------------------------------------------------|
D|-------------------------------------------------------------------------|
A|-------------------------------------------------------------------------|
D|--0-0-0-0-0-0-0-0-7-7-7-7-7-7-7-7-5-5-5-5-5-5-5-5-5-5-5-5-5-5-5-5--------|
P.M   ______________ _______________ ______________________________

e|-------------------------------------------------------------------------|
B|-------------------------------------------------------------------------|
G|-------------------------------------------------------------------------|
D|-------------------------------------------------------------------------|
A|-------------------------------------------------------------------------|
D|--7-7-7-7-7-7-7-7-9-9-9-9-9-9-9-9-5-5-5-5-5-5-5-5-5-5-5-5-5-5-5-5--------|
P.M   ______________ _______________ ______________________________

*GUITAR 2:*
LISTEN TO SONG FOR TIMING (pattern of strumming changes sometimes)
e|-------------------------------------------------------------------------|
B|-------------------------------------------------------------------------|
G|-7-7-12-10-10-10-12-7-7-7------------------------------------------------|
D|-------------------------------------------------------------------------|
A|-------------------------------------------------------------------------|
D|-------------------------------------------------------------------------|

Pre Chorus:
e|-----------------------------|
B|-----------------------------|
G|-----------------------------|
D|-----------------------------|
A|---0------3------5------7----|
D|---0------3------5------7----|

Chorus:
e|-------------------------------------------------------------------------|
B|-------------------------------------------------------------------------|
G|-------------------------------------------------------------------------|
D|---0-0-0-0-------0-0-0-0-------0-0-0-0-----------------------------------|
A|-------------------------------------------------------------------------|
D|------------0-------------0-------------0--6-7-8--8-9-11-----------------|

e|-------------------------------------------------------------------------|
B|-------------------------------------------------------------------------|
G|-------------------------------------------------------------------------|
D|---5-5-5-5-------5-5-5-5-----5-5-5-5-------5-5-5-5-4-3-------------------|
A|-------------------------------------------------------------------------|
D|------------5-------------5-----------5----------------------------------|

e|-------------------------------------------------------------------------|
B|-------------------------------------------------------------------------|
G|-------------------------------------------------------------------------|
D|---0-0-0-0-------0-0-0-0-------0-0-0-0-----------------------------------|
A|-------------------------------------------------------------------------|
D|------------0-------------0-------------0--6-7-8--8-9-11-----------------|

e|---------------------------------------------------------|
B|---------------------------------------------------------|
G|---------------------------------------------------------|
D|---5-5-5-5-------5-5-5-5-----5-5-5-5-------5-5-5-5-4-3---|
A|---------------------------------------------------------|
D|------------5-------------5-----------5------------------|

Bridge:
e|-------------------------------------------------------------------------|
B|-------------------------------------------------------------------------|
G|---10-10-10-10-10-10-10-10-5-5-5-5-5-5-5-5-6--5-6-5-6-5--6-5-6-5-6-9-10--|
D|-------------------------------------------------------------------------|
A|-------------------------------------------------------------------------|
D|-------------------------------------------------------------------------|
 =============================CONTINUED RIFF===============================
e|-------------------------------------------------------------------------|
B|----------------------------9h10p9-------------9h10p9--------------------|
G|-5---6--5-6-5-6-5--6--5-6-5--------10-10---5----------10-12--------------|
D|-------------------------------------------------------------------------|
A|-------------------------------------------------------------------------|
D|-------------------------------------------------------------------------|


Last Pre Chorus:
e|----------------------------------------------------|
B|----------------------------------------------------|
G|----------------------------------------------------|
D|---5-5-5-5-------5-5-5-5-----5-5-5-5-------5-5-5-5--|
A|----------------------------------------------------|
D|------------5-------------5-----------5-------------|

Chorus:
e|-------------------------------------------------------------------------|
B|-------------------------------------------------------------------------|
G|-------------------------------------------------------------------------|
D|---0-0-0-0-------0-0-0-0-------0-0-0-0-----------------------------------|
A|-------------------------------------------------------------------------|
D|------------0-------------0-------------0--6-7-8--8-9-11-----------------|

e|-------------------------------------------------------------------------|
B|-------------------------------------------------------------------------|
G|-------------------------------------------------------------------------|
D|---5-5-5-5-------5-5-5-5-----5-5-5-5-------5-5-5-5-4-3-------------------|
A|-------------------------------------------------------------------------|
D|------------5-------------5-----------5----------------------------------|

e|-------------------------------------------------------------------------|
B|-------------------------------------------------------------------------|
G|-------------------------------------------------------------------------|
D|---0-0-0-0-------0-0-0-0-------0-0-0-0-----------------------------------|
A|-------------------------------------------------------------------------|
D|------------0-------------0-------------0--6-7-8--8-9-11-----------------|

e|---------------------------------------------------------|
B|---------------------------------------------------------|
G|---------------------------------------------------------|
D|---5-5-5-5-------5-5-5-5-----5-5-5-5-------5-5-5-5-4-3---|
A|---------------------------------------------------------|
D|------------5-------------5-----------5------------------|

Outro:
e|-----------------------|
B|-----------------------|
G|-----------------------|
D|-----------------------|
A|------------------12/--|
D|---6-7-8--8-9-11--12/--|


| /  slide up
| \  slide down
| h  hammer-on
| p  pull-off
| ~  vibrato
| +  harmonic
| x  Mute note
|P.M Palm Mute
===============================================================================





Comments


Popular Rogue Traders tabs & chords
Way To Go! Chords
Don't You Wanna Feel Tabs
Fashion Tabs
The Price We Pay Tabs
Watching You Intro Tabs
Way To Go! 1 Tabs
We're Coming Home Tabs
Casting Aside Ukulele
Way To Go Ukulele
What Youre On Ukulele


Song lyrics



↑ Back to top | Tablatures and chords are parodies/interpretations of the original songs. You may use it for private study, scholarship, research or language learning purposes only
© 2014 AZChords.com Contact us | Privacy policy | DMCA | Add/correct tabs | Request tabs | Top 50 tabs