>
 >
Thats All

Thats All Guitar Tabs

Rod Stewart - Thats All chords, tabs, tablatures, lyrics

Guitar lessons | Add/correct | Request | Top 50 tabs Artists:  A B C D E F G H I J K L M N O P Q R S T U V W X Y Z 0-9

Thats All Guitar Tabs – Rod Stewart

CD, Sheet music, Poster

Do you like Thats All? Share with your friends now
Tabs
Tuning: standard and CAPO on the 1st fret
Be warned! this is a jazz song with a BUNCH
of chords!!!..

Dmaj7:   xx0222
Em7:     022033
F#m7:    242222
A13:     x02022
F#m7b5:  xx1222
F#7:     242322
Bm7:     x24232
E9:      xx2132
Ddim:    xx0131
Adim:    x01212
Bb7b5:   x10130
A7sus:   x02030
A7:      x02020
B7b5:    7x786x
A7b5:    5x564x
D:       xx0232
D9:      x5455x
Gmaj7:   3x0432
Am7:     x02010
E13:     020133
Amaj7:   x02120
Em/A:    x02000
B9:      x2122x
Bm:      x24432
Bmmaj7:  x24332
F#7sus:  242422
Bmaj7:   x24342
Dbm7:    x46454
Ebm7:    x68676
F#13:    2x234x
Dbm9:    x4244x
Ebm7b5:  x3434x
Eb7:     x6564x
Abm7:    464444
Db9:     x4344x
F13:     1x1233
A6b9:    x02322

INTRO:
    Dmaj7      Em7          F#m7         Em7
e|--------2-----------3-----------5------------3-------|
B|----------2-----------3------------5-----------3-----|
G|-----2-----------4-----------6------------4----------| (2)
D|--0----------2------------4------------2-------------|
A|-----------------------------------------------------|
E|-----------------------------------------------------|

VERSE:
                Dmaj7      Em7          F#m7           Em7  A13
e|--------------------2-----------3-----------5---------3----2-----|
B|----------------------2-----------3------------5------3----2-----|
G|-----------------2-----------4-----------6------------4----0-----|
D|--------------0----------2------------4---------------2----2-----|
A|-----------------------------------------------------------0-----|
E|-----------------------------------------------------------------|
         I can only....

    Dmaj7      F#m7b5       Em7           A13  F#7
e|--------2-----------2-----------3--------2----0------|
B|----------2-----------2------------3-----2----2------|
G|-----2-----------2-----------4-----------0----3------|
D|--0----------1------------2--------------2----2------|
A|-----------------------------------------0-----------|
E|-----------------------------------------------------|

     Bm7        E9       Em7      Ddim    F#m7    Adim Bb7b9    A7sus  A7
e|--------2-----------2--------0-------1--------------------0----0---0-------|
B|--------3--------3-----------3-------3------3-------4------3---3---2-------|
G|------2---2---1-----------0-------1---------2-------5---1------0---0-------|
D|--------------------------------0---------2-------4------------2---2-------|
A|---2--------------------------------------------0-----1--------0---0-------|
E|--------------0--------0----------------2----------------------------------|

    Dmaj7      Em7          F#m7           Em7  A13
e|--------2-----------3-----------5---------3----2-----|
B|----------2-----------3------------5------3----2-----|
G|-----2-----------4-----------6------------4----0-----|
D|--0----------2------------4---------------2----2-----|
A|-----------------------------------------------0-----|
E|-----------------------------------------------------|

   Dmaj7       F#m7b5       Em7           A13  F#7
e|--------2-----------2-----------3--------2----0------|
B|----------2-----------2------------3-----2----2------|
G|-----2-----------2-----------4-----------0----3------|
D|--0----------1------------2--------------2----2------|
A|-----------------------------------------0-----------|
E|-----------------------------------------------------|

    Bm7         E9      Em7      Ddim     F#m7 B7b5 Em7  A7b5  D
e|--------2-----------2--------0-------1-----------------------2-----------|
B|--------3--------3-----------3-------3---10---6----8----4----3-----------|
G|------2---2---1-----------0-------1------9----8----7----6----2-----------|
D|--------------------------------0--------11---7----9----5----0-----------|
A|---2-------------------------------------9---------7---------------------|
E|--------------0--------0----------------------7---------5----------------|
                                    that's all..


       Dmaj7         Em7             F#m7    Em7 A13
I can only give you love that lasts forever,
       Dmaj7        F#m7b5             Em7    A13  F#7
And a promise to be near each time you call.
        Bm7          E9
And the only heart I own
    Em7          Ddim
For you and you alone
        F#m7  Adim
That's all,
       Bb7b5 A7sus A7
That's all
       Dmaj7          Em7              F#m7      Em7  A13
I can only give you country walks in springtime
      Dmaj7             F#m7b5           Em7   A13  F#7
And a hand to hold when leaves begin to fall;
       Bm7               E9
And a love whose burning light
      Em7              Ddim
Will warm the winter's night
        F#m7 B7b5
That's all,
        Em7  A7b5  D  Dmaj7  Adim
That's all.
           Am7       D9             Gmaj7
There are those I am sure who have told you,
           Am7           D9         Gmaj7
They would give you the world for a toy.
      Bm7            E13       Amaj7
All I have are these arms to enfold you,
       Bm7           E13      Em/A  A7b5
And a love time can never destroy.


           Dmaj7             Gmaj7       Dmaj7       Gmaj7
If you're wondering what I'm asking in return, dear,
           F#m7              B9             Em7      A13  F#7
You'll be glad to know that my demands are small.
         Bm              Bmmaj7
Say it's me that you'll adore,
     Bm7         E9
For now and evermore
       Em/A  A7b9
That's all,
       Dmaj7  F#7sus  F#7
That's all.

          Bmaj7      Dbm7        Ebm7    Dbm7  F#13
e|--------------------------------------------------------|
B|--------7/11---7---7--10/11--7----7--7------------------|
G|---8--9----------8-------------8------------------------|
D|--------------------------------------------------------|
A|--------------------------------------------------------|
E|--------------------------------------------------------|

          Bmaj7          Ebm7b5        Dbm9  F#13  Eb7
e|-----------------------------------------------------|
B|--------7--10/11---7---7--10/11--7----7--------------|
G|---8--9--------------8--------------8----------------|
D|-----------------------------------------------------|
A|-----------------------------------------------------|
E|-----------------------------------------------------|
           Abm7       Db9     Dbm9       Ebm7        Em7
e|------6--7/11--7----7-----6-7/11---7---7/9---7--9--10--7-------------------|
B|---9--------------9-----9------------9--------------------8-7--------------|
G|-8-------------------------------------------------------------9-----------|
D|---------------------------------------------------------------------------|
A|---------------------------------------------------------------------------|
E|---------------------------------------------------------------------------|
  A7         A13
e|-------5----------------|
B|---/7-----7\6/7---------|
G|------------------------|
D|------------------------|
A|------------------------|
E|------------------------|


           Dmaj7             Gmaj7       Dmaj7       Gmaj7
If you're wondering what I'm asking in return, dear,
           F#m7              B9             Em7    A13  F#7
You'll be glad to know that my demands are small.
         Bm                     Bmmaj7
Say it's me that you'll adore,
     Bm7              E13
For now and evermore
        F#m7  F13  Em7 A6b9
That's all,

          Dmaj7      Em7          F#m7         Em7        Dmaj7
e|--------------2-----------3-----------5------------3-----2------|
B|----------------2-----------3------------5-----------2---2------|
G|-----------2-----------4-----------6------------4--------2------|
D|--------0----------2------------4------------2-----------0------|
A|----------------------------------------------------------------|
E|----------------------------------------------------------------|
   that's all





Comments


Popular Rod Stewart tabs & chords
Da Ya Think I'm Sexy?  Bass Tabs
Downtown Train Chords
Forever Young 2 Chords
If Only Chords
The Killing Of Georgie Part I And Ii Chords
Tonight's The Night Chords
Stay With Me Tabs
Downtown Train Ukulele
Have You Ever Seen The Rain Ukulele
This Old Heart Of Mine Ukulele


Song lyrics



↑ Back to top | Tablatures and chords are parodies/interpretations of the original songs. You may use it for private study, scholarship, research or language learning purposes only
© 2014 AZChords.com Contact us | Privacy policy | DMCA | Add/correct tabs | Request tabs | Top 50 tabs