» » »

Da Ya Think I'm Sexy?  Tabs (ver.1)

Artists:  A B C D E F G H I J K L M N O P Q R S T U V W X Y Z # 

Da Ya Think I'm Sexy?  Tabs (ver.1)

Rod Stewart
Rating:
0/5 (0 votes)

Tabs too difficult? Try these video lessons and learn fast.
                I looked everywhere for the nice solo on synth in this song but I guess there's no tab for it so I tried it myself... hope is right, it sounds like it is..if you think something is wrong please correct it.

|---------8--12~--8~--10p8--10p8--10p8---------|
|-----10--------------------------------10~----|
|-10-------------------------------------------|
|----------------------------------------------|
|----------------------------------------------|
|----------------------------------------------|

|---------------------------|
|--10p8--10p8--10p8---------|
|--------------------10~----|
|---------------------------|
|---------------------------|
|---------------------------|

credits go to Rod Stewart :) bYe
            
Tabs too difficult? Try these video lessons and learn fast.




comments powered by Disqus
↑ Back to top | Tablatures and chords are parodies/interpretations of the original songs. You may use it for private study, scholarship, research or language learning purposes only