>
 >
La Maza

La Maza Guitar Tabs

Rodriguez Silvio - La Maza chords, tabs, tablatures, lyrics

Guitar lessons | Add/correct | Request | Top 50 tabs Artists:  A B C D E F G H I J K L M N O P Q R S T U V W X Y Z 0-9

La Maza Guitar Tabs – Rodriguez Silvio

CD, Sheet music, Poster

Do you like La Maza? Share with your friends now
Tabs
Silvio Rodriguez



INTRO  ***

           Lam             Mi7/Sol#         Sol           Re/Fa          Fa
     

E|---0----------------4----------------3--------------2---------------1------------|
A|---------------------------------------------------------------------------------|
D|----------------------------------------------4-2------------------------3-2-0---|
G|---------2--2-0--------4---4---4-----------0----------2---2---2------------------|
B|-------------------------5-------5------3---------------3-------3------1---------|
e|------0----------------------0------------------------------0--------------------|



        Lam7/mi             Sim7       Fa__________ Sol              Lam      


E|--0---------------------2--------2----1---------------------0---------------------|
A|---------------------------------2------------------------------------------------|
D|----2-------------2--------------4------------------------------------------------|
G|------0---------0---------2------2------2--------------------------2--2-0---------|
B|--------1-----1-------------3----3--------1-------3-------------------------------|
e|----------1-0--------------------2----------1-s-3---------------0-----------------|



         Mi7/Sol#        Sol         Re/Fa            Fa              Lam7/mi         


E|--4-----------------3-------------2----------------1------------0------------------|
A|-----------------------------------------------------------------------------------|
D|---------------------------4-2-------------------------3-2-0------2-------------2--|
G|----4---4---4-----------0-----------2---2---2-----------------------0---------0----|
B|------5-------5-------3---------------3-------3------1----------------1-----1------|
e|----------0-------------------------------0-----------------------------1-0--------|





       Sim7           Fa_________Sol    Fa ______ Sol        Lam


E|---2----------2------1-----------------1-------------------------------------------|
A|--------------2----------------------------------------0------------------0--------|
D|--------------4--------------------------------------------------------------------|
G|-----2--------2--------2-----------------2---------------2-----------2-------2-----|
B|-------3------3----------1-------3---------1-------3-------1---------1---------1---|
e|--------------2------------1-S-3-------------1-S-3-----------0-h-1-0---------------|



                             Fa_________Sol         Lam


E|---3--------1-------0-------1------------------------------------------------------|
A|---------------------------------------------0-------------0-----------0-----------|
D|-----------------------------------------------------------------------------------|
G|------0-------0-------0-------2-----------------2------------2-----------2---------|
B|--------1-------0-------0-------1-------3---------1------------1-----------1-------|
e|----------------------------------1-s-3-------------0-0-0--------0-0-0-------0-0-0-|





E|--------------|
A|--0-----------|
D|--------------|
G|----2---------|
B|------1-------|
e|--------0-0-0-|




        Lam           Mi/Sol#
1)
     Si no creyera en la locura

E|-----------------------4---------------|
A|----0----------------------------------|
D|---------------------------------------|
G|------2------------------4---4---4-----|
B|--------1------------------5-------5---|
e|----------0-0-0----------------0-------|



         Sol             Re/Fa

      de la garganta del sinsonte

E|--3--------------------2-----------------|
A|-----------------------------------------|
D|-----------------------------------------|
G|----0---0---0------------2---2---2-------|
B|------3-------3------------3-------3-----|
e|----------0--------------------0---------|


          Fa               Lam7/mi

     si no creyera que en el monte


E|---1--------------------0--------------------|
A|---------------------------------------------|
D|--------------------------2-------------2----|
G|-----2---2---2--------------0---------0------|
B|-------1-------1--------------1-----1--------|
e|-----------1--------------------1-0----------|

        Sim7               Fa _______ Sol
        
   se esconde el trino y la pavura.


E|--2------------2--------------1----------------|
A|---------------2-------------------------------|
D|---------------4-------------------------------|
G|----2----------2----------------2--------------|
B|------3--------3------------------1-------3----|
e|---------------2--------------------1-s-3------|


se repite lo anterior


1)Si no creyera en la balanza
en la razón del equilibrio
si no creyera en el delirio
si no creyera en la esperanza.

1)Si no creyera en lo que agencio
si no creyera en mi camino
si no creyera en mi sonido 
si no creyera en mi silencio.




    Mi7
2)Que cosa fuera
                     Lam
Que cosa fuera la maza sin cantera
      Sol     Fa       Mi7
un amasijo hecho de cuerdas y tendones
                 Lam
un revoltijo de carne con madera
        Sol     Fa    Mi7
un instrumento sin mejores resplandores
                 Lam
que lucecitas montadas para escena
          Sol   Fa   Mi7
que cosa fuera -corazon- que cosa fuera
                  Lam
que cosa fuera la maza sin cantera
        Sol   Fa      Mi7
un testaferro del traidor de los aplausos
                 Lam
un servidor de pasado en copa nueva
      Sol   Fa     Mi7
un eternizador de dioses del ocaso
                   Lam
jubilo hervido con trapo y lentejuela
          Sol   Fa   Mi7
que cosa fuera -corazon- que cosa fuera
                  Lam
que cosa fuera la maza sin cantera
          Sol   Fa   Mi7 
que cosa fuera -corazon- que cosa fuera
                  Lam
que cosa fuera la maza sin cantera.


1)Si no creyera en lo mas duro
si no creyera en el deseo
si no creyera en lo que creo
si no creyera en algo puro.

1)Si no creyera en cada herida
si no creyera en la que ronde
si no creyera en lo que esconde
hacerse hermano de la vida.

1)Si no creyera en quien me escucha
si no creyera en lo que duele
si no creyera en lo que queda
si no creyera en lo que lucha.


2)Que cosa fuera
Que cosa fuera la maza sin cantera
un amasijo hecho de cuerdas y tendones
un revoltijo de carne con madera
un instrumento sin mejores resplandores
que lucecitas montadas para escena
que cosa fuera -corazon- que cosa fuera
que cosa fuera la maza sin cantera
un testaferro del traidor de los aplausos
un servidor de pasado en copa nueva
un eternizador de dioses del ocaso
jubilo hervido con trapo y lentejuela
que cosa fuera -corazon- que cosa fuera
que cosa fuera la maza sin cantera
que cosa fuera -corazon- que cosa fuera
que cosa fuera la maza sin cantera.





         EADGBe
   
Mi7:     022130
Lam7/mi: 0x2011





Comments


Popular Rodriguez Silvio tabs & chords
Fabula De Los Tres Hermanos Chords
Historia De Las Sillas Chords
Playa Giron Chords
Ando Como Hormiguita Tabs
Cancion Del Elegido Tabs
En Estos Dias 1 Tabs
Fabula De Los Tres Hermanos Tabs
Ojala Tabs
Resumen De Noticias Tabs
Y Nada Mas 1 Tabs


Song lyrics



↑ Back to top | Tablatures and chords are parodies/interpretations of the original songs. You may use it for private study, scholarship, research or language learning purposes only
© 2014 AZChords.com Contact us | Privacy policy | DMCA | Add/correct tabs | Request tabs | Top 50 tabs