» » »

Rocky Votolato, Without Eyes Still Seeing Bass tabs (ver.1)

Artists:  A B C D E F G H I J K L M N O P Q R S T U V W X Y Z # 

Without Eyes Still Seeing Bass tabs (ver.1)

Rocky Votolato Tabs
Rating:
5/5 (1 vote)
Without Eyes Still Seeing lessons Tabs too difficult? Try these video lessons and learn fast
                
Verse
G|--------------------------------------------------------------------------|
D|--------------------------------------------------------------------------|
A|---------------------------------5-5-5-5-5-5-5-5--------------------------|
E|-5-5-5-5-5-5-5-5-3-3-3-3-3-3-3-3-----------------5-5-5-5-5-5-5-5----------|

G|--------------------------------------------------------------------------|
D|--------------------------------------------------------------------------|
A|-3-3-3-3-3-3-3-3-----------------5-5-5-5-5-5-5-5--------------------------|
E|-----------------3-3-3-3-3-3-3-3-----------------5-5-5-5-5-5-5-5----------|

G|--------------------------------------------------------------------------|
D|--------------------------------------------------------------------------|
A|-----------------5-5-5-5-5-5-5-5-----------------3-3-3-3-3-3-3-3----------|
E|-3-3-3-3-3-3-3-3-----------------5-5-5-5-5-5-5-5--------------------------|

G|--------------------------------------------------------------------------|
D|--------------------------------------------------------------------------|
A|-----------------5-5-5-5-5-5-5-5-----------------3-3-3-3-3-3-3-3----------|
E|-3-3-3-3-3-3-3-3-----------------5-5-5-5-5-5-5-5--------------------------|

Bridge (Where the song slows down for a bit)
G|--------------------------------------------------------------------------|
D|--------------------------------------------------2*----------------------|
A|-----------------5-5-5-5-5-5-5-5------3*------5*------3*------------------|
E|-3-3-3-3-3-3-3-3------------------5*------3*------------------------------|

Continue with the verse as above but end on:

G|----------|
D|----------|
A|----------|
E|----3*----|
            
Submit corrections

comments powered by Disqus
↑ Back to top | Rocky Votolato Bass for Without Eyes Still Seeing. Lyrics for acoustic guitar and electric guitar. Tablatures and chords are parodies/interpretations of the original songs. You may use it for private study, scholarship, research or language learning purposes only