» » »

Rocky Votolato, Where We Started Tabs (ver.1)

Artists:  A B C D E F G H I J K L M N O P Q R S T U V W X Y Z # 

Where We Started Tabs (ver.1)

Rocky Votolato Tabs
Rating:
0/5 (0 votes)
Where We Started lessons Tabs too difficult? Try these video lessons and learn fast
                -----------------------------------------------------------------------
-----------------------------------------------------------------------


~~~~~~
TUNING: Standard
~~~~~~

Awesome song.. play it in a "punchy" manner.

Intro
e|--X--X-X-X-----0-0-0-0------2-2-2-2-2-2-2-2-2-2----------------------|
B|--8--8-8-8-7-5-0-0-0-0----5-3-3-3-3-3-3-3-3-3-3----------------------|
G|--0--0-0-0-----6-6-6-6-6h7--2-2-2-2-2-2-2-2-2-2----------------------|
D|--X--X-X-X-----7-7-7-7------0-0-0-0-0-X-0-0-0-0----------------------|
A|--7--7-7-7-----0-0-0-0------0-0-0-0-0-4-0-0-0-0----------------------|
E|--0--0-0-0-----X-X-X-X------X-X-X-X-X-X-X-X-X-X----------------------|

Verse
e|--X--X-X-X-----0-0-0-0-0-0-0--X-X-X-X---X-X--0-----------------------|
B|--8--8-8-8-7-5-0-0-0-0-0-0-0--8-8-8-8--10-8--0-----------------------|
G|--0--0-0-0-----6-6-6-6-6-6-6--0-0-0-0---X-X--6-----------------------|
D|--X--X-X-X-----7-7-7-7-7-7-7--X-X-X-X---X-X--7-----------------------|
A|--7--7-7-7-----0-0-0-0-0-0-0--7-7-7-7---7-5--0-----------------------|
E|--0--0-0-0-----X-X-X-X-X-X-X--0-0-0-0---X-X--X-----------------------|
          "spaceships....."
Pre-Chorus
e|--------------------------------------------5-----X-X-X---0----------|
B|--7------7---8-----7-------7---8----7-------7-7---X-X-3---3--3-------|
G|--7--7-------------7---7------------7---7---7-----0-0-0---0----------|
D|--0----------------0----------------0-------X-----0-0-0---0----------|
A|--X----------------X----------------X-------X-----X-X-X---X----------|
E|--7----7---7---7---6-----6---6--6---5-----5-5--5--3 3-3-3-2---2------|
     "I can see....."
Chorus
e|--X--X-X-X-----0-0-0-0------2-2-2-2-2-2-2-2-2-2-2-2-2----------------|
B|--8--8-8-8-7-5-0-0-0-0----5-3-3-3-3-3-3-3-3-3-3-3-3-3----------------|
G|--0--0-0-0-----6-6-6-6-6h7--2-2-2-2-2-2-2-2-2-2-2-2-2----------------|
D|--X--X-X-X-----7-7-7-7------0-0-0-0-0-X-0-0-0-0-X-X-X----------------|
A|--7--7-7-7-----0-0-0-0------0-0-0-0-0-4-0-0-0-0-4-4-4----------------|
E|--0--0-0-0-----X-X-X-X------X-X-X-X-X-X-X-X-X-X-X-X-X----------------|
      "I knew we'd end up where we started....."
Verse 2
e|--X--X-X-X-----0-0-0-0-0-0-0--X-X-X-X---X-X--0-----------------------|
B|--8--8-8-8-7-5-0-0-0-0-0-0-0--8-8-8-8--10-8--0-----------------------|
G|--0--0-0-0-----6-6-6-6-6-6-6--0-0-0-0---X-X--6-----------------------|
D|--X--X-X-X-----7-7-7-7-7-7-7--X-X-X-X---X-X--7-----------------------|
A|--7--7-7-7-----0-0-0-0-0-0-0--7-7-7-7---7-5--0-----------------------|
E|--0--0-0-0-----X-X-X-X-X-X-X--0-0-0-0---X-X--X-----------------------|
          "the road that you're on......"
Pre-Chorus 2
e|--------------------------------------------5-----X-X-X---0----------|
B|--7------7---8-----7-------7---8----7-------7-7---X-X-3---3--3-------|
G|--7--7-------------7---7------------7---7---7-----0-0-0---0----------|
D|--0----------------0----------------0-------X-----0-0-0---0----------|
A|--X----------------X----------------X-------X-----X-X-X---X----------|
E|--7----7---7---7---6-----6---6--6---5-----5-5--5--3 3-3-3-2---2------|
         "placing blame......"

Chorus
e|--X--X-X-X-----0-0-0-0------2-2-2-2-2-2-2-2-2-2-2-2-2----------------|
B|--8--8-8-8-7-5-0-0-0-0----5-3-3-3-3-3-3-3-3-3-3-3-3-3----------------|
G|--0--0-0-0-----6-6-6-6-6h7--2-2-2-2-2-2-2-2-2-2-2-2-2----------------|
D|--X--X-X-X-----7-7-7-7------0-0-0-0-0-X-0-0-0-0-X-X-X----------------|
A|--7--7-7-7-----0-0-0-0------0-0-0-0-0-4-0-0-0-0-4-4-4----------------|
E|--0--0-0-0-----X-X-X-X------X-X-X-X-X-X-X-X-X-X-X-X-X----------------|
      "I knew we'd end up where we started....."

Bridge
e|--222222-222222-000000-----------222222-222222-000000-000----0-------|
B|--333333-222222-000000-0000-XXXX-333333-222222-000000-222-2~3--------|
G|--444444-222222-000000-2222-3333-444444-222222-000000-222------------|
D|--444444-444444-222222-2222-3333-444444-444444-222222-222------------|
A|--222222-444444-222222-0000-1111-222222-444444-222222-000------------|
E|--XXXXXX-222222-000000-XXXX-XXXX-XXXXXX-222222-000000----------------|

Bridge Contd.
e|--2222222-0000000-3333333----0----000000-000----0-2222222222---------|
B|--3333333-2222222-3333333--3---3--000000-222-2~3--3333333333---------|
G|--2222222-2222222-0000000---------000000-222------2222222222---------|
D|--0000000-0000000-0000000---------222222-222------00000X0000---------|
A|--0000000-0000000-XXXXXXX---------222222-000------0000040000---------|
E|------------------3333333-2-2-2-2-000000----------XXXXXXXXXX---------|

Verse 3
e|--X--X-X-X-----0-0-0--0--0--0--0---X-X-X-X---X-X--0------------------|
B|--8--8-8-8-7-5-0-0-0--10-10-10-10--8-8-8-8--10-8--0------------------|
G|--0--0-0-0-----6-6-6--9--9--9--9---0-0-0-0---X-X--6------------------|
D|--X--X-X-X-----7-7-7--7--7--7--7---X-X-X-X---X-X--7------------------|
A|--7--7-7-7-----0-0-0--0--0--0--0---7-7-7-7---7-5--0------------------|
E|--0--0-0-0-----X-X-X--X--X--X--X---0-0-0-0---X-X--X------------------|
  "Just a couple......"

Pre-Chorus 3
e|--------------------------------------------5-----X-X-X---0----------|
B|--7------7---8-----7-------7---8----7-------7-7---X-X-3---3--3-------|
G|--7--7-------------7---7------------7---7---7-----0-0-0---0----------|
D|--0----------------0----------------0-------X-----0-0-0---0----------|
A|--X----------------X----------------X-------X-----X-X-X---X----------|
E|--7----7---7---7---6-----6---6--6---5-----5-5--5--3 3-3-3-2---2------|
         "you can be free......"

Final Chorus / Outro
e|--X--X-X-X-----0-0-0-0------2222222-0000000-X--X-X-X-----0-0-0-0-----|
B|--8--8-8-8-7-5-0-0-0-0----5-3333333-0000000-8--8-8-8-7-5-0-0-0-0----5|
G|--0--0-0-0-----6-6-6-6-6h7--4444444-0000000-0--0-0-0-----6-6-6-6-6h7-|
D|--X--X-X-X-----7-7-7-7------4444444-2222222-X--X-X-X-----7-7-7-7-----|
A|--7--7-7-7-----0-0-0-0------2222222-2222222-7--7-7-7-----0-0-0-0-----|
E|--0--0-0-0-----X-X-X-X------XXXXXXX-0000000-0--0-0-0-----X-X-X-X-----|
      "I knew we'd end up where we started....."

Outro Contd.
e|--2222222-0000000-3333333----0----000000-000----0-222222222222222----|
B|--3333333-2222222-3333333--3---3--000000-222-2~3--333333333333333----|
G|--2222222-2222222-0000000---------000000-222------222222222222222----|
D|--0000000-0000000-0000000---------222222-222------00000X000000X00----|
A|--0000000-0000000-XXXXXXX---------222222-000------000004000000400----|
E|------------------3333333-2-2-2-2-000000----------XXXXXXXXXXXXXXX----|
                                                    ^Continue till fade
            
Submit corrections

comments powered by Disqus
↑ Back to top | Rocky Votolato Tabs for Where We Started. Lyrics for acoustic guitar and electric guitar. Tablatures and chords are parodies/interpretations of the original songs. You may use it for private study, scholarship, research or language learning purposes only