» » »

Rocky Votolato, Eyes Like Static Tabs (ver.1)

Artists:  A B C D E F G H I J K L M N O P Q R S T U V W X Y Z # 

Eyes Like Static Tabs (ver.1)

Rocky Votolato Tabs
Rating:
5/5 (1 vote)
Hard to play? Try these video lessons and learn fast.
                Rocky Votolato - True Devotion
Tuning: Standard :)
Jake K.

Intro/Verse
e|---------------------------------------------------------------------------|
B|---------------------------------------------------------------------------|
G|----55555555--55555555---9--9--9--9--9--9--9--9--9--99999999---------------|
D|----77777777--77777777--10-10-10-10-10-10-10-10-10--99999999---------------|
A|----00000000--88888888--10-10-10-10-10-10-10-10-10--77777777---------------|
E|-------------------------8--8--8--8--8--8--8--8--8--00000000---------------| 

Pre-Chorus
e|----11111111--33333333------------000000000000-----------------------------|
B|----11111111--33333333------------111111111111-----------------------------|
G|----22222222--44444444------------000000000000-----------------------------|
D|----33333333--55555555------------222222222222-----------------------------|
A|----33333333--55555555------------333333333333-----------------------------|
E|----11111111--33333333-----------------------------------------------------|
            "Before the tide washes innnnnnnn  

Chorus
e|----------0-------------0----------------0------------3--------------------|
B|----------1-------------1----------------1------------3--------------------|
G|----------2-------------2----------------0------------0--------------------|
D|----10-9--2-------------3----------------2------------0--------------------|
A|-----X-X--0-------------0----------------3------------x--------------------|
E|-----8-7----------------------------------------------3--------------------|
              millions of voices on top of voices, till no one is listening

Chorus
e|----0------0---------------------0-------------3---------------------------|
B|----1------1---------------------1-------------3---------------------------|
G|----2------2---------------------0-------------0---------------------------|
D|----2------3---------------------2-------------0---------------------------|
A|----0------0---------------------3-------------X---------------------------|
E|-----------------------------------------------3---------------------------|
        manic breakdown - misunderstanding, till nothing can be

Chorus
e|----1----------------3---------1---------------3---------1---------------3-|
B|----1----------------3---------1---------------3---------1---------------3-|
G|----2----------------4---------2---------------4---------2---------------4-|
D|----3----------------5---------3---------------5---------3---------------5-|
A|----3----------------5---------3---------------5---------3---------------5-|
E|----1----------------3---------1---------------3---------1---------------3-|
  heard. The static is everywhere, the static is everywhere, the static is am-

e|---------------------------------------------------------------------------|
B|---------------------------------------------------------------------------|
G|---------55555555--55555555---9--9--9--9--9--9--9--9--9--99999999----------|
D|---10-9--77777777--77777777--10-10-10-10-10-10-10-10-10--99999999----------|
A|----X-X--00000000--88888888--10-10-10-10-10-10-10-10-10--77777777----------|
E|----8-7-----------------------8--8--8--8--8--8--8--8--8--00000000----------| 
    -munition"

Verse 2
e|---------------------------------------------------------------------------|
B|---------------------------------------------------------------------------|
G|----55555555--55555555---9--9--9--9--9--9--9--9--9--99999999---------------|
D|----77777777--77777777--10-10-10-10-10-10-10-10-10--99999999---------------|
A|----00000000--88888888--10-10-10-10-10-10-10-10-10--77777777---------------|
E|-------------------------8--8--8--8--8--8--8--8--8--00000000---------------| 

Pre-Chorus
e|----11111111--33333333------------000000000000-----------------------------|
B|----11111111--33333333------------111111111111-----------------------------|
G|----22222222--44444444------------000000000000-----------------------------|
D|----33333333--55555555------------222222222222-----------------------------|
A|----33333333--55555555------------333333333333-----------------------------|
E|----11111111--33333333-----------------------------------------------------|

Chorus
e|----------0-------------0----------------0------------3--------------------|
B|----------1-------------1----------------1------------3--------------------|
G|----------2-------------2----------------0------------0--------------------|
D|----10-9--2-------------3----------------2------------0--------------------|
A|-----X-X--0-------------0----------------3------------x--------------------|
E|-----8-7----------------------------------------------3--------------------|
              millions of voices on top of voices, till no one is listening

Chorus
e|----0------0---------------------0-------------3---------------------------|
B|----1------1---------------------1-------------3---------------------------|
G|----2------2---------------------0-------------0---------------------------|
D|----2------3---------------------2-------------0---------------------------|
A|----0------0---------------------3-------------X---------------------------|
E|-----------------------------------------------3---------------------------|
        manic breakdown - misunderstanding, till nothing can be

Chorus
e|----1----------------3---------1---------------3---------1---------------3-|
B|----1----------------3---------1---------------3---------1---------------3-|
G|----2----------------4---------2---------------4---------2---------------4-|
D|----3----------------5---------3---------------5---------3---------------5-|
A|----3----------------5---------3---------------5---------3---------------5-|
E|----1----------------3---------1---------------3---------1---------------3-|
  heard. The static is everywhere, the static is everywhere, the static is am-

e|---------------------------------------------------------------------------|
B|---------------------------------------------------------------------------|
G|---------55555555--55555555---9--9--9--9--9--9--9--9--9--99999999----------|
D|---10-9--77777777--77777777--10-10-10-10-10-10-10-10-10--99999999----------|
A|----X-X--00000000--88888888--10-10-10-10-10-10-10-10-10--77777777----------|
E|----8-7-----------------------8--8--8--8--8--8--8--8--8--00000000----------|
    -munition"

Bridge
e|----11111111----33333333-------00000000---------1--------------------------|
B|----11111111----33333333-------00000000---------1--------------------------|
G|----22222222----44444444-------11111111---------2--------------------------|
D|----33333333----55555555-------22222222---------3--------------------------|
A|----33333333----55555555-------22222222---------3--------------------------|
E|----11111111----33333333-------00000000---------1--------------------------|
        "It's all up to you now, where we go from here

Ending Chorus
e|----1---------3----------1--------------3---------1---------------3-|
B|----1---------3----------1--------------3---------1---------------3-|
G|----2---------4----------2--------------4---------2---------------4-|
D|----3---------5----------3--------------5---------3---------------5-|
A|----3---------5----------3--------------5---------3---------------5-|
E|----1---------3----------1--------------3---------1---------------3-|
  The static is everywhere, the static is everywhere, the static is am-
                          (keeps on raining down)  (keeps on raining down)
   
e|---------------------------------------------------------------------------|
B|---------------------------------------------------------------------------|
G|---------55555555--55555555---9--9--9--9--9--9--9--9--9--99999999----------|
D|---10-9--77777777--77777777--10-10-10-10-10-10-10-10-10--99999999----------|
A|----X-X--00000000--88888888--10-10-10-10-10-10-10-10-10--77777777----------|
E|----8-7-----------------------8--8--8--8--8--8--8--8--8--00000000----------|
    -munition" 

Outro
e|----11111111--33333333---8--------------------------------------|
B|----11111111--33333333---8--------------------------------------|
G|----22222222--44444444---9--------------------------------------|
D|----33333333--55555555--10--------------------------------------|
A|----33333333--55555555--10--------------------------------------|
E|----11111111--33333333---8--------------------------------------|
     "Aaaaaaah  aaaaaaah   aaaaaaaaaaaaaah!"             ***END!***
            

comments powered by Disqus
↑ Back to top | Rocky Votolato Tabs for Eyes Like Static. Lyrics for acoustic guitar and electric guitar. Tablatures and chords are parodies/interpretations of the original songs. You may use it for private study, scholarship, research or language learning purposes only