>
 >
Parting Time 6

Parting Time 6 Guitar Tabs

Rockstar - Parting Time 6 chords, tabs, tablatures, lyrics

Guitar lessons | Add/correct | Request | Top 50 tabs Artists:  A B C D E F G H I J K L M N O P Q R S T U V W X Y Z 0-9

Parting Time 6 Guitar Tabs – Rockstar

CD, Sheet music, Poster

Do you like Parting Time 6? Share with your friends now
Bass TabsChordsChords v2Chords v3Chords v4Chords v5TabsTabs v2Tabs v3Tabs v4Tabs v5Tabs v6Ukulele
| /  slide up
| \  slide down
| h  hammer-on
| p  pull-off
| ~  vibrato
| +  harmonic
| x  Mute note
  ^  Bend Up
============================================================================

Solo:
e|-------------------------------------------------------------------------|
B|--14^-14^--14^--14--12----12--------------------------------14-15-15p14--|
G|-----------------------13----13-11-13---------13x-13x-14-16--------------|
D|--------------------------------------14x-14x----------------------------|
A|-------------------------------------------------------------------------|
E|-------------------------------------------------------------------------|

e|-------------------------------------------------------------------------|
B|-----13-16p13-----19+^-19------------------------------------------------|
G|------------------------------------------------13-------13-13/14-14~----|
D|------------------------------------16-14-12-16----16-14-----------------|
A|--16----------14----------12--12\----------------------------------------|
E|-------------------------------------------------------------------------|

e|--------------------------17------14-12-10/12-16-14-17-17/19-17----------|
B|------17-----17------/17^----17^-----------------------------------------|
G|--16^----16^----16^------------------------------------------------------|
D|-------------------------------------------------------------------------|
A|-------------------------------------------------------------------------|
E|-------------------------------------------------------------------------|





Comments


Popular Rockstar tabs & chords
Bakit Kaya Chords
Hindi Ko Naisip Chords
Ikay Mahal Parin 1 Chords
Parting Time 1 Chords
Parting Time 4 Chords
Sinta Chords
Parting Time 2 Tabs
Parting Time Ukulele
Sinta Ukulele
Wala Pa Ring Iba Ukulele


Song lyrics



↑ Back to top | Tablatures and chords are parodies/interpretations of the original songs. You may use it for private study, scholarship, research or language learning purposes only
© 2014 AZChords.com Contact us | Privacy policy | DMCA | Add/correct tabs | Request tabs | Top 50 tabs